  0
SECTION
  2
HEADER
  9
$ACADVER
  1
AC1015
  9
$ACADMAINTVER
 70
     6
  9
$DWGCODEPAGE
  3
ANSI_1252
  9
$INSBASE
 10
0.0
 20
0.0
 30
0.0
  9
$EXTMIN
 10
0.0
 20
0.0
 30
0.0
  9
$EXTMAX
 10
2376.0
 20
1680.0
 30
0.0
  9
$LIMMIN
 10
0.0
 20
0.0
  9
$LIMMAX
 10
2376.0
 20
1680.0
  9
$ORTHOMODE
 70
     0
  9
$REGENMODE
 70
     1
  9
$FILLMODE
 70
     1
  9
$QTEXTMODE
 70
     0
  9
$MIRRTEXT
 70
     1
  9
$LTSCALE
 40
1.0
  9
$ATTMODE
 70
     1
  9
$TEXTSIZE
 40
2.5
  9
$TRACEWID
 40
1.0
  9
$TEXTSTYLE
  7
Standard
  9
$CLAYER
  8
0
  9
$CELTYPE
  6
ByLayer
  9
$CECOLOR
 62
   256
  9
$CELTSCALE
 40
1.0
  9
$DISPSILH
 70
     0
  9
$DIMSCALE
 40
1.0
  9
$DIMASZ
 40
2.5
  9
$DIMEXO
 40
0.625
  9
$DIMDLI
 40
3.75
  9
$DIMRND
 40
0.0
  9
$DIMDLE
 40
0.0
  9
$DIMEXE
 40
1.25
  9
$DIMTP
 40
0.0
  9
$DIMTM
 40
0.0
  9
$DIMTXT
 40
2.5
  9
$DIMCEN
 40
2.5
  9
$DIMTSZ
 40
0.0
  9
$DIMTOL
 70
     0
  9
$DIMLIM
 70
     0
  9
$DIMTIH
 70
     0
  9
$DIMTOH
 70
     0
  9
$DIMSE1
 70
     0
  9
$DIMSE2
 70
     0
  9
$DIMTAD
 70
     1
  9
$DIMZIN
 70
     8
  9
$DIMBLK
  1

  9
$DIMASO
 70
     1
  9
$DIMSHO
 70
     1
  9
$DIMPOST
  1

  9
$DIMAPOST
  1

  9
$DIMALT
 70
     0
  9
$DIMALTD
 70
     3
  9
$DIMALTF
 40
0.0393700787
  9
$DIMLFAC
 40
1.0
  9
$DIMTOFL
 70
     1
  9
$DIMTVP
 40
0.0
  9
$DIMTIX
 70
     0
  9
$DIMSOXD
 70
     0
  9
$DIMSAH
 70
     0
  9
$DIMBLK1
  1

  9
$DIMBLK2
  1

  9
$DIMSTYLE
  2
ISO-25
  9
$DIMCLRD
 70
     0
  9
$DIMCLRE
 70
     0
  9
$DIMCLRT
 70
     0
  9
$DIMTFAC
 40
1.0
  9
$DIMGAP
 40
0.625
  9
$DIMJUST
 70
     0
  9
$DIMSD1
 70
     0
  9
$DIMSD2
 70
     0
  9
$DIMTOLJ
 70
     0
  9
$DIMTZIN
 70
     8
  9
$DIMALTZ
 70
     0
  9
$DIMALTTZ
 70
     0
  9
$DIMUPT
 70
     0
  9
$DIMDEC
 70
     2
  9
$DIMTDEC
 70
     2
  9
$DIMALTU
 70
     2
  9
$DIMALTTD
 70
     3
  9
$DIMTXSTY
  7
Standard
  9
$DIMAUNIT
 70
     0
  9
$DIMADEC
 70
     0
  9
$DIMALTRND
 40
0.0
  9
$DIMAZIN
 70
     0
  9
$DIMDSEP
 70
    44
  9
$DIMATFIT
 70
     3
  9
$DIMFRAC
 70
     0
  9
$DIMLDRBLK
  1

  9
$DIMLUNIT
 70
     2
  9
$DIMLWD
 70
    -2
  9
$DIMLWE
 70
    -2
  9
$DIMTMOVE
 70
     0
  9
$LUNITS
 70
     2
  9
$LUPREC
 70
     4
  9
$SKETCHINC
 40
1.0
  9
$FILLETRAD
 40
10.0
  9
$AUNITS
 70
     0
  9
$AUPREC
 70
     0
  9
$MENU
  1
.
  9
$ELEVATION
 40
0.0
  9
$PELEVATION
 40
0.0
  9
$THICKNESS
 40
0.0
  9
$LIMCHECK
 70
     0
  9
$CHAMFERA
 40
10.0
  9
$CHAMFERB
 40
10.0
  9
$CHAMFERC
 40
20.0
  9
$CHAMFERD
 40
0.0
  9
$SKPOLY
 70
     0
  9
$TDCREATE
 40
2454511.3967475
  9
$TDUCREATE
 40
2454511.355080833
  9
$TDUPDATE
 40
2454511.396747511
  9
$TDUUPDATE
 40
2454511.355080845
  9
$TDINDWG
 40
0.0000000116
  9
$TDUSRTIMER
 40
0.0000000116
  9
$USRTIMER
 70
     1
  9
$ANGBASE
 50
0.0
  9
$ANGDIR
 70
     0
  9
$PDMODE
 70
     0
  9
$PDSIZE
 40
0.0
  9
$PLINEWID
 40
0.0
  9
$SPLFRAME
 70
     0
  9
$SPLINETYPE
 70
     6
  9
$SPLINESEGS
 70
     8
  9
$HANDSEED
  5
1EF
  9
$SURFTAB1
 70
     6
  9
$SURFTAB2
 70
     6
  9
$SURFTYPE
 70
     6
  9
$SURFU
 70
     6
  9
$SURFV
 70
     6
  9
$UCSBASE
  2

  9
$UCSNAME
  2

  9
$UCSORG
 10
0.0
 20
0.0
 30
0.0
  9
$UCSXDIR
 10
1.0
 20
0.0
 30
0.0
  9
$UCSYDIR
 10
0.0
 20
1.0
 30
0.0
  9
$UCSORTHOREF
  2

  9
$UCSORTHOVIEW
 70
     0
  9
$UCSORGTOP
 10
0.0
 20
0.0
 30
0.0
  9
$UCSORGBOTTOM
 10
0.0
 20
0.0
 30
0.0
  9
$UCSORGLEFT
 10
0.0
 20
0.0
 30
0.0
  9
$UCSORGRIGHT
 10
0.0
 20
0.0
 30
0.0
  9
$UCSORGFRONT
 10
0.0
 20
0.0
 30
0.0
  9
$UCSORGBACK
 10
0.0
 20
0.0
 30
0.0
  9
$PUCSBASE
  2

  9
$PUCSNAME
  2

  9
$PUCSORG
 10
0.0
 20
0.0
 30
0.0
  9
$PUCSXDIR
 10
1.0
 20
0.0
 30
0.0
  9
$PUCSYDIR
 10
0.0
 20
1.0
 30
0.0
  9
$PUCSORTHOREF
  2

  9
$PUCSORTHOVIEW
 70
     0
  9
$PUCSORGTOP
 10
0.0
 20
0.0
 30
0.0
  9
$PUCSORGBOTTOM
 10
0.0
 20
0.0
 30
0.0
  9
$PUCSORGLEFT
 10
0.0
 20
0.0
 30
0.0
  9
$PUCSORGRIGHT
 10
0.0
 20
0.0
 30
0.0
  9
$PUCSORGFRONT
 10
0.0
 20
0.0
 30
0.0
  9
$PUCSORGBACK
 10
0.0
 20
0.0
 30
0.0
  9
$USERI1
 70
     0
  9
$USERI2
 70
     0
  9
$USERI3
 70
     0
  9
$USERI4
 70
     0
  9
$USERI5
 70
     0
  9
$USERR1
 40
0.0
  9
$USERR2
 40
0.0
  9
$USERR3
 40
0.0
  9
$USERR4
 40
0.0
  9
$USERR5
 40
0.0
  9
$WORLDVIEW
 70
     1
  9
$SHADEDGE
 70
     3
  9
$SHADEDIF
 70
    70
  9
$TILEMODE
 70
     1
  9
$MAXACTVP
 70
    64
  9
$PINSBASE
 10
0.0
 20
0.0
 30
0.0
  9
$PLIMCHECK
 70
     0
  9
$PEXTMIN
 10
0.0
 20
0.0
 30
0.0
  9
$PEXTMAX
 10
2376.0
 20
1680.0
 30
0.0
  9
$PLIMMIN
 10
0.0
 20
0.0
  9
$PLIMMAX
 10
2376.0
 20
1680.0
  9
$UNITMODE
 70
     0
  9
$VISRETAIN
 70
     1
  9
$PLINEGEN
 70
     0
  9
$PSLTSCALE
 70
     1
  9
$TREEDEPTH
 70
  3020
  9
$CMLSTYLE
  2
Standard
  9
$CMLJUST
 70
     0
  9
$CMLSCALE
 40
20.0
  9
$PROXYGRAPHICS
 70
     1
  9
$MEASUREMENT
 70
     1
  9
$CELWEIGHT
370
    -1
  9
$ENDCAPS
280
     0
  9
$JOINSTYLE
280
     0
  9
$LWDISPLAY
290
     0
  9
$INSUNITS
 70
     4
  9
$HYPERLINKBASE
  1

  9
$STYLESHEET
  1

  9
$XEDIT
290
     1
  9
$CEPSNTYPE
380
     0
  9
$PSTYLEMODE
290
     1
  9
$FINGERPRINTGUID
  2
{E7DA6668-B166-4A2C-8CCE-E7802F604CF9}
  9
$VERSIONGUID
  2
{FAEB1C32-E019-11D5-929B-00C0DF256EC4}
  9
$EXTNAMES
290
     1
  9
$PSVPSCALE
 40
0.0
  9
$OLESTARTUP
290
     0
  0
ENDSEC
  0
SECTION
  2
CLASSES
  0
CLASS
  1
ACDBDICTIONARYWDFLT
  2
AcDbDictionaryWithDefault
  3
ObjectDBX Classes
 90
        0
280
     0
281
     0
  0
CLASS
  1
RASTERVARIABLES
  2
AcDbRasterVariables
  3
ISM
 90
        0
280
     0
281
     0
  0
CLASS
  1
IMAGEDEF
  2
AcDbRasterImageDef
  3
ISM
 90
        0
280
     0
281
     0
  0
CLASS
  1
IMAGE
  2
AcDbRasterImage
  3
ISM
 90
      127
280
     0
281
     1
  0
CLASS
  1
IMAGEDEF_REACTOR
  2
AcDbRasterImageDefReactor
  3
ISM
 90
        1
280
     0
281
     0
  0
CLASS
  1
ACDBPLACEHOLDER
  2
AcDbPlaceHolder
  3
ObjectDBX Classes
 90
        0
280
     0
281
     0
  0
CLASS
  1
LAYOUT
  2
AcDbLayout
  3
ObjectDBX Classes
 90
        0
280
     0
281
     0
  0
ENDSEC
  0
SECTION
  2
TABLES
  0
TABLE
  2
VPORT
  5
8
330
0
100
AcDbSymbolTable
 70
     1
  0
VPORT
  5
29
330
8
100
AcDbSymbolTableRecord
100
AcDbViewportTableRecord
  2
*Active
 70
     0
 10
0.0
 20
0.0
 11
1.0
 21
1.0
 12
344.1869158879
 22
148.5
 13
0.0
 23
0.0
 14
10.0
 24
10.0
 15
10.0
 25
10.0
 16
0.0
 26
0.0
 36
1.0
 17
0.0
 27
0.0
 37
0.0
 40
297.0
 41
1.9729729729
 42
50.0
 43
0.0
 44
0.0
 50
0.0
 51
0.0
 71
     0
 72
   100
 73
     1
 74
     3
 75
     0
 76
     0
 77
     0
 78
     0
281
     0
 65
     1
110
0.0
120
0.0
130
0.0
111
1.0
121
0.0
131
0.0
112
0.0
122
1.0
132
0.0
 79
     0
146
0.0
  0
ENDTAB
  0
TABLE
  2
LTYPE
  5
5
330
0
100
AcDbSymbolTable
 70
     3
  0
LTYPE
  5
14
330
5
100
AcDbSymbolTableRecord
100
AcDbLinetypeTableRecord
  2
ByBlock
 70
     0
  3

 72
    65
 73
     0
 40
0.0
  0
LTYPE
  5
15
330
5
100
AcDbSymbolTableRecord
100
AcDbLinetypeTableRecord
  2
ByLayer
 70
     0
  3

 72
    65
 73
     0
 40
0.0
  0
LTYPE
  5
16
330
5
100
AcDbSymbolTableRecord
100
AcDbLinetypeTableRecord
  2
Continuous
 70
     0
  3
Solid line
 72
    65
 73
     0
 40
0.0
  0
LTYPE
  5
30
330
5
100
AcDbSymbolTableRecord
100
AcDbLinetypeTableRecord
  2
CENTER2
 70
     0
  3
Center (.5x) ___ _ ___ _ ___ _ ___ _ ___ _ ___
 72
    65
 73
     4
 40
28.575
 49
19.05
 74
     4
 75
     0
340
0
 46
0.0
 50
0.0
 44
0.0
 45
0.0
 49
-3.175
 74
     4
 75
     0
340
0
 46
0.0
 50
0.0
 44
0.0
 45
0.0
 49
3.175
 74
     4
 75
     0
340
0
 46
0.0
 50
0.0
 44
0.0
 45
0.0
 49
-3.175
 74
     4
 75
     0
340
0
 46
0.0
 50
0.0
 44
0.0
 45
0.0
  0
LTYPE
  5
65
330
5
100
AcDbSymbolTableRecord
100
AcDbLinetypeTableRecord
  2
HIDDEN2
 70
     0
  3
Hidden (.5x) _ _ _ _ _ _ _ _ _ _ _ _ _ _ _ _ _ 
 72
    65
 73
     2
 40
4.7625
 49
3.175
 74
     4
 75
     0
340
0
 46
0.0
 50
0.0
 44
0.0
 45
0.0
 49
-1.5875
 74
     4
 75
     0
340
0
 46
0.0
 50
0.0
 44
0.0
 45
0.0
  0
ENDTAB
  0
TABLE
  2
LAYER
  5
2
330
0
100
AcDbSymbolTable
 70
     5
  0
LAYER
  5
10
330
2
100
AcDbSymbolTableRecord
100
AcDbLayerTableRecord
  2
0
 70
     0
 62
     7
  6
Continuous
370
    -3
390
F
  0
LAYER
  5
2C
330
2
100
AcDbSymbolTableRecord
100
AcDbLayerTableRecord
  2
Default
 70
     0
 62
     7
  6
Continuous
370
    -3
390
F
  0
LAYER
  5
3E
330
2
100
AcDbSymbolTableRecord
100
AcDbLayerTableRecord
  2
NECK
 70
     0
 62
     7
  6
Continuous
370
    -3
390
F
  0
LAYER
  5
17C
330
2
100
AcDbSymbolTableRecord
100
AcDbLayerTableRecord
  2
1
 70
     0
 62
     7
  6
Continuous
370
    -3
390
F
  0
LAYER
  5
189
330
2
100
AcDbSymbolTableRecord
100
AcDbLayerTableRecord
  2
Predefinito
 70
     0
 62
     7
  6
Continuous
370
    -3
390
F
  0
ENDTAB
  0
TABLE
  2
STYLE
  5
3
330
0
100
AcDbSymbolTable
 70
     6
  0
STYLE
  5
11
330
3
100
AcDbSymbolTableRecord
100
AcDbTextStyleTableRecord
  2
Standard
 70
     0
 40
0.0
 41
1.0
 50
0.0
 71
     0
 42
2.5
  3
txt
  4

  0
STYLE
  5
2A
330
3
100
AcDbSymbolTableRecord
100
AcDbTextStyleTableRecord
  2
SEACAD_seiso_ttf
 70
     0
 40
0.0
 41
1.0
 50
0.0
 71
     0
 42
0.2
  3
seiso.ttf
  4

  0
STYLE
  5
E1
330
3
100
AcDbSymbolTableRecord
100
AcDbTextStyleTableRecord
  2
SEACAD_semeci1_ttf
 70
     0
 40
0.0
 41
1.0
 50
0.0
 71
     0
 42
0.2
  3
semeci1.ttf
  4

  0
STYLE
  5
183
330
3
100
AcDbSymbolTableRecord
100
AcDbTextStyleTableRecord
  2
SEACAD_arial_ttf
 70
     0
 40
0.0
 41
1.0
 50
0.0
 71
     0
 42
0.2
  3
arial.ttf
  4

  0
STYLE
  5
187
330
3
100
AcDbSymbolTableRecord
100
AcDbTextStyleTableRecord
  2
SEACAD_seiso_ttfBI
 70
     0
 40
0.0
 41
1.0
 50
0.0
 71
     0
 42
0.2
  3
seiso.ttf
  4

  0
STYLE
  5
193
330
3
100
AcDbSymbolTableRecord
100
AcDbTextStyleTableRecord
  2
SEACAD_seiso_ttfB
 70
     0
 40
0.0
 41
1.0
 50
0.0
 71
     0
 42
0.2
  3
seiso.ttf
  4

  0
ENDTAB
  0
TABLE
  2
VIEW
  5
6
330
0
100
AcDbSymbolTable
 70
     0
  0
ENDTAB
  0
TABLE
  2
UCS
  5
7
330
0
100
AcDbSymbolTable
 70
     0
  0
ENDTAB
  0
TABLE
  2
APPID
  5
9
330
0
100
AcDbSymbolTable
 70
     1
  0
APPID
  5
12
330
9
100
AcDbSymbolTableRecord
100
AcDbRegAppTableRecord
  2
ACAD
 70
     0
  0
ENDTAB
  0
TABLE
  2
DIMSTYLE
  5
A
330
0
100
AcDbSymbolTable
 70
     1
100
AcDbDimStyleTable
  0
DIMSTYLE
105
27
330
A
100
AcDbSymbolTableRecord
100
AcDbDimStyleTableRecord
  2
ISO-25
 70
     0
 41
2.5
 42
0.625
 43
3.75
 44
1.25
 73
     0
 74
     0
 77
     1
 78
     8
140
2.5
141
2.5
143
0.0393700787
147
0.625
171
     3
172
     1
271
     2
272
     2
274
     3
278
    44
283
     0
284
     8
340
11
  0
ENDTAB
  0
TABLE
  2
BLOCK_RECORD
  5
1
330
0
100
AcDbSymbolTable
 70
    33
  0
BLOCK_RECORD
  5
1F
330
1
100
AcDbSymbolTableRecord
100
AcDbBlockTableRecord
  2
*Model_Space
340
22
  0
BLOCK_RECORD
  5
1B
330
1
100
AcDbSymbolTableRecord
100
AcDbBlockTableRecord
  2
*Paper_Space
340
1E
  0
BLOCK_RECORD
  5
2E
330
1
100
AcDbSymbolTableRecord
100
AcDbBlockTableRecord
  2
SEANNOT_GROUP
340
0
102
{BLKREFS
331
2F
102
}
1001
ACAD
1000
DesignCenter Data
1002
{
1070
     1
1070
     0
1002
}
  0
BLOCK_RECORD
  5
34
330
1
100
AcDbSymbolTableRecord
100
AcDbBlockTableRecord
  2
SEANNOT_GROUP1
340
0
102
{BLKREFS
331
35
102
}
1001
ACAD
1000
DesignCenter Data
1002
{
1070
     1
1070
     0
1002
}
  0
BLOCK_RECORD
  5
39
330
1
100
AcDbSymbolTableRecord
100
AcDbBlockTableRecord
  2
SEANNOT_GROUP2
340
0
102
{BLKREFS
331
3A
102
}
1001
ACAD
1000
DesignCenter Data
1002
{
1070
     1
1070
     0
1002
}
  0
BLOCK_RECORD
  5
45
330
1
100
AcDbSymbolTableRecord
100
AcDbBlockTableRecord
  2
SE
340
0
102
{BLKREFS
331
46
102
}
1001
ACAD
1000
DesignCenter Data
1002
{
1070
     1
1070
     0
1002
}
  0
BLOCK_RECORD
  5
47
330
1
100
AcDbSymbolTableRecord
100
AcDbBlockTableRecord
  2
SE1
340
0
102
{BLKREFS
331
48
102
}
1001
ACAD
1000
DesignCenter Data
1002
{
1070
     1
1070
     0
1002
}
  0
BLOCK_RECORD
  5
4C
330
1
100
AcDbSymbolTableRecord
100
AcDbBlockTableRecord
  2
SE2
340
0
102
{BLKREFS
331
4D
102
}
1001
ACAD
1000
DesignCenter Data
1002
{
1070
     1
1070
     0
1002
}
  0
BLOCK_RECORD
  5
51
330
1
100
AcDbSymbolTableRecord
100
AcDbBlockTableRecord
  2
SE3
340
0
102
{BLKREFS
331
52
102
}
1001
ACAD
1000
DesignCenter Data
1002
{
1070
     1
1070
     0
1002
}
  0
BLOCK_RECORD
  5
57
330
1
100
AcDbSymbolTableRecord
100
AcDbBlockTableRecord
  2
SE4
340
0
102
{BLKREFS
331
58
102
}
1001
ACAD
1000
DesignCenter Data
1002
{
1070
     1
1070
     0
1002
}
  0
BLOCK_RECORD
  5
C6
330
1
100
AcDbSymbolTableRecord
100
AcDbBlockTableRecord
  2
GDimGGroup
340
0
102
{BLKREFS
331
C7
102
}
1001
ACAD
1000
DesignCenter Data
1002
{
1070
     1
1070
     0
1002
}
  0
BLOCK_RECORD
  5
D0
330
1
100
AcDbSymbolTableRecord
100
AcDbBlockTableRecord
  2
GDimGGroup1
340
0
102
{BLKREFS
331
D1
102
}
1001
ACAD
1000
DesignCenter Data
1002
{
1070
     1
1070
     0
1002
}
  0
BLOCK_RECORD
  5
DA
330
1
100
AcDbSymbolTableRecord
100
AcDbBlockTableRecord
  2
GDimGGroup2
340
0
102
{BLKREFS
331
DB
102
}
1001
ACAD
1000
DesignCenter Data
1002
{
1070
     1
1070
     0
1002
}
  0
BLOCK_RECORD
  5
E6
330
1
100
AcDbSymbolTableRecord
100
AcDbBlockTableRecord
  2
GDimGGroup3
340
0
102
{BLKREFS
331
E7
102
}
1001
ACAD
1000
DesignCenter Data
1002
{
1070
     1
1070
     0
1002
}
  0
BLOCK_RECORD
  5
F0
330
1
100
AcDbSymbolTableRecord
100
AcDbBlockTableRecord
  2
GDimGGroup4
340
0
102
{BLKREFS
331
F1
102
}
1001
ACAD
1000
DesignCenter Data
1002
{
1070
     1
1070
     0
1002
}
  0
BLOCK_RECORD
  5
FA
330
1
100
AcDbSymbolTableRecord
100
AcDbBlockTableRecord
  2
GDimGGroup5
340
0
102
{BLKREFS
331
FB
102
}
1001
ACAD
1000
DesignCenter Data
1002
{
1070
     1
1070
     0
1002
}
  0
BLOCK_RECORD
  5
104
330
1
100
AcDbSymbolTableRecord
100
AcDbBlockTableRecord
  2
GDimGGroup6
340
0
102
{BLKREFS
331
105
102
}
1001
ACAD
1000
DesignCenter Data
1002
{
1070
     1
1070
     0
1002
}
  0
BLOCK_RECORD
  5
122
330
1
100
AcDbSymbolTableRecord
100
AcDbBlockTableRecord
  2
GDimGGroup7
340
0
102
{BLKREFS
331
123
102
}
1001
ACAD
1000
DesignCenter Data
1002
{
1070
     1
1070
     0
1002
}
  0
BLOCK_RECORD
  5
12C
330
1
100
AcDbSymbolTableRecord
100
AcDbBlockTableRecord
  2
GDimGGroup8
340
0
102
{BLKREFS
331
12D
102
}
1001
ACAD
1000
DesignCenter Data
1002
{
1070
     1
1070
     0
1002
}
  0
BLOCK_RECORD
  5
136
330
1
100
AcDbSymbolTableRecord
100
AcDbBlockTableRecord
  2
GDimGGroup9
340
0
102
{BLKREFS
331
137
102
}
1001
ACAD
1000
DesignCenter Data
1002
{
1070
     1
1070
     0
1002
}
  0
BLOCK_RECORD
  5
153
330
1
100
AcDbSymbolTableRecord
100
AcDbBlockTableRecord
  2
GDimGGroup10
340
0
102
{BLKREFS
331
154
102
}
1001
ACAD
1000
DesignCenter Data
1002
{
1070
     1
1070
     0
1002
}
  0
BLOCK_RECORD
  5
15D
330
1
100
AcDbSymbolTableRecord
100
AcDbBlockTableRecord
  2
GDimGGroup11
340
0
102
{BLKREFS
331
15E
102
}
1001
ACAD
1000
DesignCenter Data
1002
{
1070
     1
1070
     0
1002
}
  0
BLOCK_RECORD
  5
167
330
1
100
AcDbSymbolTableRecord
100
AcDbBlockTableRecord
  2
GDimGGroup12
340
0
102
{BLKREFS
331
168
102
}
1001
ACAD
1000
DesignCenter Data
1002
{
1070
     1
1070
     0
1002
}
  0
BLOCK_RECORD
  5
171
330
1
100
AcDbSymbolTableRecord
100
AcDbBlockTableRecord
  2
GDimGGroup13
340
0
102
{BLKREFS
331
172
102
}
1001
ACAD
1000
DesignCenter Data
1002
{
1070
     1
1070
     0
1002
}
  0
BLOCK_RECORD
  5
181
330
1
100
AcDbSymbolTableRecord
100
AcDbBlockTableRecord
  2
SEANNOT_GROUP3
340
0
102
{BLKREFS
331
182
102
}
1001
ACAD
1000
DesignCenter Data
1002
{
1070
     1
1070
     0
1002
}
  0
BLOCK_RECORD
  5
191
330
1
100
AcDbSymbolTableRecord
100
AcDbBlockTableRecord
  2
SEANNOT_GROUP4
340
0
102
{BLKREFS
331
192
102
}
1001
ACAD
1000
DesignCenter Data
1002
{
1070
     1
1070
     0
1002
}
  0
BLOCK_RECORD
  5
19A
330
1
100
AcDbSymbolTableRecord
100
AcDbBlockTableRecord
  2
SEANNOT_GROUP5
340
0
102
{BLKREFS
331
19B
102
}
1001
ACAD
1000
DesignCenter Data
1002
{
1070
     1
1070
     0
1002
}
  0
BLOCK_RECORD
  5
1A4
330
1
100
AcDbSymbolTableRecord
100
AcDbBlockTableRecord
  2
SEANNOT_GROUP6
340
0
102
{BLKREFS
331
1A5
102
}
1001
ACAD
1000
DesignCenter Data
1002
{
1070
     1
1070
     0
1002
}
  0
BLOCK_RECORD
  5
1BD
330
1
100
AcDbSymbolTableRecord
100
AcDbBlockTableRecord
  2
SEANNOT_GROUP7
340
0
102
{BLKREFS
331
1BE
102
}
1001
ACAD
1000
DesignCenter Data
1002
{
1070
     1
1070
     0
1002
}
  0
BLOCK_RECORD
  5
1C2
330
1
100
AcDbSymbolTableRecord
100
AcDbBlockTableRecord
  2
SEANNOT_GROUP8
340
0
102
{BLKREFS
331
1C3
102
}
1001
ACAD
1000
DesignCenter Data
1002
{
1070
     1
1070
     0
1002
}
  0
BLOCK_RECORD
  5
1C8
330
1
100
AcDbSymbolTableRecord
100
AcDbBlockTableRecord
  2
SEANNOT_GROUP9
340
0
102
{BLKREFS
331
1C9
102
}
1001
ACAD
1000
DesignCenter Data
1002
{
1070
     1
1070
     0
1002
}
  0
BLOCK_RECORD
  5
1CE
330
1
100
AcDbSymbolTableRecord
100
AcDbBlockTableRecord
  2
SEANNOT_GROUP10
340
0
102
{BLKREFS
331
1CF
102
}
1001
ACAD
1000
DesignCenter Data
1002
{
1070
     1
1070
     0
1002
}
  0
BLOCK_RECORD
  5
1D3
330
1
100
AcDbSymbolTableRecord
100
AcDbBlockTableRecord
  2
SEANNOT_GROUP11
340
0
102
{BLKREFS
331
1D4
102
}
1001
ACAD
1000
DesignCenter Data
1002
{
1070
     1
1070
     0
1002
}
  0
BLOCK_RECORD
  5
1D9
330
1
100
AcDbSymbolTableRecord
100
AcDbBlockTableRecord
  2
SEANNOT_GROUP12
340
0
102
{BLKREFS
331
1DA
102
}
1001
ACAD
1000
DesignCenter Data
1002
{
1070
     1
1070
     0
1002
}
  0
ENDTAB
  0
ENDSEC
  0
SECTION
  2
BLOCKS
  0
BLOCK
  5
20
330
1F
100
AcDbEntity
  8
0
100
AcDbBlockBegin
  2
*Model_Space
 70
     0
 71
     0
 10
0.0
 20
0.0
 30
0.0
  3
*Model_Space
  1

  0
ENDBLK
  5
21
330
1F
100
AcDbEntity
  8
0
100
AcDbBlockEnd
  0
BLOCK
  5
1C
330
1B
100
AcDbEntity
 67
     1
  8
0
100
AcDbBlockBegin
  2
*Paper_Space
 70
     0
 71
     0
 10
0.0
 20
0.0
 30
0.0
  3
*Paper_Space
  1

  0
ENDBLK
  5
1D
330
1B
100
AcDbEntity
 67
     1
  8
0
100
AcDbBlockEnd
  0
BLOCK
  5
32
330
2E
100
AcDbEntity
  8
0
100
AcDbBlockBegin
  2
SEANNOT_GROUP
 70
     0
 71
     0
 10
0.0
 20
0.0
 30
0.0
  3
SEANNOT_GROUP
  1

  0
LINE
  5
31
330
2E
100
AcDbEntity
  8
Default
  6
CENTER2
 62
   136
370
     9
100
AcDbLine
 10
1322.3314778482
 20
1031.2811820757
 30
0.0
 11
1255.9487115059
 21
1031.2811820757
 31
0.0
  0
ENDBLK
  5
33
330
2E
100
AcDbEntity
  8
0
100
AcDbBlockEnd
  0
BLOCK
  5
37
330
34
100
AcDbEntity
  8
0
100
AcDbBlockBegin
  2
SEANNOT_GROUP1
 70
     0
 71
     0
 10
0.0
 20
0.0
 30
0.0
  3
SEANNOT_GROUP1
  1

  0
LINE
  5
36
330
34
100
AcDbEntity
  8
Default
  6
CENTER2
 62
   136
370
     9
100
AcDbLine
 10
1325.9487115059
 20
1191.2811820757
 30
0.0
 11
1258.9487115059
 21
1191.2811820757
 31
0.0
  0
ENDBLK
  5
38
330
34
100
AcDbEntity
  8
0
100
AcDbBlockEnd
  0
BLOCK
  5
3C
330
39
100
AcDbEntity
  8
0
100
AcDbBlockBegin
  2
SEANNOT_GROUP2
 70
     0
 71
     0
 10
0.0
 20
0.0
 30
0.0
  3
SEANNOT_GROUP2
  1

  0
LINE
  5
3B
330
39
100
AcDbEntity
  8
Default
  6
CENTER2
 62
   136
370
     9
100
AcDbLine
 10
1325.9487115059
 20
871.2811820757
 30
0.0
 11
1258.9487115059
 21
871.2811820757
 31
0.0
  0
ENDBLK
  5
3D
330
39
100
AcDbEntity
  8
0
100
AcDbBlockEnd
  0
BLOCK
  5
60
330
45
100
AcDbEntity
  8
0
100
AcDbBlockBegin
  2
SE
 70
     0
 71
     0
 10
0.0
 20
0.0
 30
0.0
  3
SE
  1

  0
INSERT
  5
48
330
45
100
AcDbEntity
  8
Default
100
AcDbBlockReference
  2
SE1
 10
0.0
 20
0.0
 30
0.0
  0
INSERT
  5
4D
330
45
100
AcDbEntity
  8
Default
100
AcDbBlockReference
  2
SE2
 10
0.0
 20
0.0
 30
0.0
  0
INSERT
  5
52
330
45
100
AcDbEntity
  8
Default
100
AcDbBlockReference
  2
SE3
 10
0.0
 20
0.0
 30
0.0
  0
INSERT
  5
58
330
45
100
AcDbEntity
  8
Default
100
AcDbBlockReference
  2
SE4
 10
0.0
 20
0.0
 30
0.0
  0
LINE
  5
5D
330
45
100
AcDbEntity
  8
Default
  6
CENTER2
 62
     7
100
AcDbLine
 10
563.6510483705
 20
1391.5203887661
 30
0.0
 11
563.6510483705
 21
1433.5203887661
 31
0.0
  0
LINE
  5
5E
330
45
100
AcDbEntity
  8
Default
  6
CENTER2
 62
     7
100
AcDbLine
 10
563.6510483705
 20
648.7762651285
 30
0.0
 11
563.6510483705
 21
606.7762651285
 31
0.0
  0
LWPOLYLINE
  5
5F
330
45
100
AcDbEntity
  8
Default
  6
CENTER2
 62
     7
100
AcDbPolyline
 90
        2
 70
     0
 43
0.00035
 10
563.6510483705
 20
1391.5203887661
 10
563.6510483705
 20
648.7762651285
  0
ENDBLK
  5
61
330
45
100
AcDbEntity
  8
0
100
AcDbBlockEnd
  0
BLOCK
  5
4A
330
47
100
AcDbEntity
  8
0
100
AcDbBlockBegin
  2
SE1
 70
     0
 71
     0
 10
0.0
 20
0.0
 30
0.0
  3
SE1
  1

  0
TEXT
  5
49
330
47
100
AcDbEntity
  8
0
  6
Continuous
 62
     7
100
AcDbText
 10
404.2311608833
 20
1407.3345989858
 30
0.0
 40
42.0
  1
A
  7
SEACAD_seiso_ttf
 11
404.2311608833
 21
1449.3345989858
 31
0.0
100
AcDbText
 73
     3
  0
ENDBLK
  5
4B
330
47
100
AcDbEntity
  8
0
100
AcDbBlockEnd
  0
BLOCK
  5
4F
330
4C
100
AcDbEntity
  8
0
100
AcDbBlockBegin
  2
SE2
 70
     0
 71
     0
 10
0.0
 20
0.0
 30
0.0
  3
SE2
  1

  0
TEXT
  5
4E
330
4C
100
AcDbEntity
  8
0
  6
Continuous
 62
     7
100
AcDbText
 10
395.2471713812
 20
577.812901626
 30
0.0
 40
42.0
  1
A
  7
SEACAD_seiso_ttf
 11
395.2471713812
 21
619.812901626
 31
0.0
100
AcDbText
 73
     3
  0
ENDBLK
  5
50
330
4C
100
AcDbEntity
  8
0
100
AcDbBlockEnd
  0
BLOCK
  5
55
330
51
100
AcDbEntity
  8
0
100
AcDbBlockBegin
  2
SE3
 70
     0
 71
     0
 10
0.0
 20
0.0
 30
0.0
  3
SE3
  1

  0
LWPOLYLINE
  5
53
330
51
100
AcDbEntity
  8
0
  6
Continuous
 62
     7
100
AcDbPolyline
 90
        2
 70
     0
 43
0.0
 10
395.6510483705
 20
1391.5203887661
 10
563.6510483705
 20
1391.5203887661
  0
LWPOLYLINE
  5
54
330
51
100
AcDbEntity
  8
0
  6
Continuous
 62
     7
100
AcDbPolyline
 90
        4
 70
     0
 43
0.0
 10
516.0510472737
 20
1383.58705525
 10
516.0510472737
 20
1399.4537222822
 10
563.6510483705
 20
1391.5203887661
 10
516.0510472737
 20
1383.58705525
  0
ENDBLK
  5
56
330
51
100
AcDbEntity
  8
0
100
AcDbBlockEnd
  0
BLOCK
  5
5B
330
57
100
AcDbEntity
  8
0
100
AcDbBlockBegin
  2
SE4
 70
     0
 71
     0
 10
0.0
 20
0.0
 30
0.0
  3
SE4
  1

  0
LWPOLYLINE
  5
59
330
57
100
AcDbEntity
  8
0
  6
Continuous
 62
     7
100
AcDbPolyline
 90
        2
 70
     0
 43
0.0
 10
395.6510483705
 20
648.7762651285
 10
563.6510483705
 20
648.7762651285
  0
LWPOLYLINE
  5
5A
330
57
100
AcDbEntity
  8
0
  6
Continuous
 62
     7
100
AcDbPolyline
 90
        4
 70
     0
 43
0.0
 10
516.0510472737
 20
640.8429316124
 10
516.0510472737
 20
656.7095986446
 10
563.6510483705
 20
648.7762651285
 10
516.0510472737
 20
640.8429316124
  0
ENDBLK
  5
5C
330
57
100
AcDbEntity
  8
0
100
AcDbBlockEnd
  0
BLOCK
  5
CE
330
C6
100
AcDbEntity
  8
0
100
AcDbBlockBegin
  2
GDimGGroup
 70
     0
 71
     0
 10
0.0
 20
0.0
 30
0.0
  3
GDimGGroup
  1

  0
HATCH
  5
C8
330
C6
100
AcDbEntity
  8
Default
  6
Continuous
 62
   136
370
     9
100
AcDbHatch
 10
0.0
 20
0.0
 30
0.0
210
0.0
220
0.0
230
1.0
  2
SOLID
 70
     1
 71
     0
 91
        1
 92
        1
 93
        3
 72
     1
 10
360.5961320968504
 20
1496.199863889626
 11
336.7961315484877
 21
1492.233197131565
 72
     1
 10
336.7961315484877
 20
1492.233197131565
 11
360.5961320968504
 21
1488.266530373505
 72
     1
 10
360.5961320968504
 20
1488.266530373505
 11
360.5961320968504
 21
1496.199863889626
 97
        0
 75
     0
 76
     1
 98
        0
  0
HATCH
  5
C9
330
C6
100
AcDbEntity
  8
Default
  6
Continuous
 62
   136
370
     9
100
AcDbHatch
 10
0.0
 20
0.0
 30
0.0
210
0.0
220
0.0
230
1.0
  2
SOLID
 70
     1
 71
     0
 91
        1
 92
        1
 93
        3
 72
     1
 10
766.4454696746702
 20
1496.199863889626
 11
766.4454696746702
 21
1488.266530373505
 72
     1
 10
766.4454696746702
 20
1488.266530373505
 11
790.245470223033
 21
1492.233197131565
 72
     1
 10
790.245470223033
 20
1492.233197131565
 11
766.4454696746702
 21
1496.199863889626
 97
        0
 75
     0
 76
     1
 98
        0
  0
LINE
  5
CA
330
C6
100
AcDbEntity
  8
Default
  6
Continuous
 62
   136
370
     9
100
AcDbLine
 10
336.7961315485
 20
1045.2914358316
 30
0.0
 11
336.7961315485
 21
1506.2331975637
 31
0.0
  0
LINE
  5
CB
330
C6
100
AcDbEntity
  8
Default
  6
Continuous
 62
   136
370
     9
100
AcDbLine
 10
790.2454740393
 20
1045.2626257693
 30
0.0
 11
790.2454740393
 21
1506.2331975637
 31
0.0
  0
LINE
  5
CC
330
C6
100
AcDbEntity
  8
Default
  6
Continuous
 62
   136
370
     9
100
AcDbLine
 10
336.7961315485
 20
1492.2331971316
 30
0.0
 11
790.245470223
 21
1492.2331971316
 31
0.0
  0
TEXT
  5
CD
330
C6
100
AcDbEntity
  8
Default
  6
Continuous
 62
   136
370
     9
100
AcDbText
 10
539.9753463403
 20
1499.2331971316
 30
0.0
 40
28.0
  1
453
  7
SEACAD_seiso_ttf
 11
539.9753463403
 21
1527.2331971316
 31
0.0
100
AcDbText
 73
     3
  0
ENDBLK
  5
CF
330
C6
100
AcDbEntity
  8
0
100
AcDbBlockEnd
  0
BLOCK
  5
D8
330
D0
100
AcDbEntity
  8
0
100
AcDbBlockBegin
  2
GDimGGroup1
 70
     0
 71
     0
 10
0.0
 20
0.0
 30
0.0
  3
GDimGGroup1
  1

  0
HATCH
  5
D2
330
D0
100
AcDbEntity
  8
Default
  6
Continuous
 62
   136
370
     9
100
AcDbHatch
 10
0.0
 20
0.0
 30
0.0
210
0.0
220
0.0
230
1.0
  2
SOLID
 70
     1
 71
     0
 91
        1
 92
        1
 93
        3
 72
     1
 10
238.0285717331091
 20
1324.101216228763
 11
245.96190524923
 21
1324.101216228763
 72
     1
 10
245.96190524923
 20
1324.101216228763
 11
241.9952384911695
 21
1347.901216777126
 72
     1
 10
241.9952384911695
 20
1347.901216777126
 11
238.0285717331091
 21
1324.101216228763
 97
        0
 75
     0
 76
     1
 98
        0
  0
HATCH
  5
D3
330
D0
100
AcDbEntity
  8
Default
  6
Continuous
 62
   136
370
     9
100
AcDbHatch
 10
0.0
 20
0.0
 30
0.0
210
0.0
220
0.0
230
1.0
  2
SOLID
 70
     1
 71
     0
 91
        1
 92
        1
 93
        3
 72
     1
 10
238.0285717331091
 20
738.2895118315618
 11
241.9952384911695
 21
714.489511283199
 72
     1
 10
241.9952384911695
 20
714.489511283199
 11
245.96190524923
 21
738.2895118315618
 72
     1
 10
245.96190524923
 20
738.2895118315618
 11
238.0285717331091
 21
738.2895118315618
 97
        0
 75
     0
 76
     1
 98
        0
  0
LINE
  5
D4
330
D0
100
AcDbEntity
  8
Default
  6
Continuous
 62
   136
370
     9
100
AcDbLine
 10
549.6510479383
 20
1347.9012167771
 30
0.0
 11
227.995238059
 21
1347.9012167771
 31
0.0
  0
LINE
  5
D5
330
D0
100
AcDbEntity
  8
Default
  6
Continuous
 62
   136
370
     9
100
AcDbLine
 10
549.4808966187
 20
714.489507825
 30
0.0
 11
227.995238059
 21
714.489507825
 31
0.0
  0
LINE
  5
D6
330
D0
100
AcDbEntity
  8
Default
  6
Continuous
 62
   136
370
     9
100
AcDbLine
 10
241.9952384912
 20
1347.9012167771
 30
0.0
 11
241.9952384912
 21
714.4895112832
 31
0.0
  0
TEXT
  5
D7
330
D0
100
AcDbEntity
  8
Default
  6
Continuous
 62
   136
370
     9
100
AcDbText
 10
234.9952384912
 20
1007.9680913029
 30
0.0
 40
28.0
  1
633
 50
90.0
  7
SEACAD_seiso_ttf
 11
206.9952384912
 21
1007.9680913029
 31
0.0
100
AcDbText
 73
     3
  0
ENDBLK
  5
D9
330
D0
100
AcDbEntity
  8
0
100
AcDbBlockEnd
  0
BLOCK
  5
E4
330
DA
100
AcDbEntity
  8
0
100
AcDbBlockBegin
  2
GDimGGroup2
 70
     0
 71
     0
 10
0.0
 20
0.0
 30
0.0
  3
GDimGGroup2
  1

  0
LINE
  5
DC
330
DA
100
AcDbEntity
  8
Default
  6
Continuous
 62
   136
370
     9
100
AcDbLine
 10
506.9850968324
 20
985.7351701562
 30
0.0
 11
582.9894364316
 21
1046.9650707082
 31
0.0
  0
LINE
  5
DD
330
DA
100
AcDbEntity
  8
Default
  6
Continuous
 62
   136
370
     9
100
AcDbLine
 10
582.9894358514
 20
1046.9650702408
 30
0.0
 11
651.0811905923
 21
1101.8205086694
 31
0.0
  0
HATCH
  5
DE
330
DA
100
AcDbEntity
  8
Default
  6
Continuous
 62
   136
370
     9
100
AcDbHatch
 10
0.0
 20
0.0
 30
0.0
210
0.0
220
0.0
230
1.0
  2
SOLID
 70
     1
 71
     0
 91
        1
 92
        1
 93
        3
 72
     1
 10
523.0304317040094
 20
1003.755206230832
 11
528.0074523297357
 21
997.5772578360079
 72
     1
 10
528.0074523297357
 20
997.5772578360079
 11
544.0527872013432
 21
1015.597293910598
 72
     1
 10
544.0527872013432
 20
1015.597293910598
 11
523.0304317040094
 21
1003.755206230832
 97
        0
 75
     0
 76
     1
 98
        0
  0
HATCH
  5
DF
330
DA
100
AcDbEntity
  8
Default
  6
Continuous
 62
   136
370
     9
100
AcDbHatch
 10
0.0
 20
0.0
 30
0.0
210
0.0
220
0.0
230
1.0
  2
SOLID
 70
     1
 71
     0
 91
        1
 92
        1
 93
        3
 72
     1
 10
599.03477072304
 20
1064.985106315358
 11
582.9894358514324
 21
1046.965070240767
 72
     1
 10
582.9894358514325
 20
1046.965070240767
 11
604.0117913487663
 21
1058.807157920534
 72
     1
 10
604.0117913487662
 20
1058.807157920534
 11
599.03477072304
 21
1064.985106315358
 97
        0
 75
     0
 76
     1
 98
        0
  0
LINE
  5
E0
330
DA
100
AcDbEntity
  8
Default
  6
Continuous
 62
   136
370
     9
100
AcDbLine
 10
651.0811940735
 20
1101.8205114739
 30
0.0
 11
751.1155725425
 21
1101.8205114739
 31
0.0
  0
TEXT
  5
E2
330
DA
100
AcDbEntity
  8
Default
  6
Continuous
 62
   136
370
     9
100
AcDbText
 10
660.8811940735
 20
1108.8205114739
 30
0.0
 40
28.0
  1
O
  7
SEACAD_semeci1_ttf
 11
660.8811940735
 21
1136.8205114739
 31
0.0
100
AcDbText
 73
     3
  0
TEXT
  5
E3
330
DA
100
AcDbEntity
  8
Default
  6
Continuous
 62
   136
370
     9
100
AcDbText
 10
708.8602333749
 20
1108.8205114739
 30
0.0
 40
28.0
  1
50
  7
SEACAD_seiso_ttf
 11
708.8602333749
 21
1136.8205114739
 31
0.0
100
AcDbText
 73
     3
  0
ENDBLK
  5
E5
330
DA
100
AcDbEntity
  8
0
100
AcDbBlockEnd
  0
BLOCK
  5
EE
330
E6
100
AcDbEntity
  8
0
100
AcDbBlockBegin
  2
GDimGGroup3
 70
     0
 71
     0
 10
0.0
 20
0.0
 30
0.0
  3
GDimGGroup3
  1

  0
HATCH
  5
E8
330
E6
100
AcDbEntity
  8
Default
  6
Continuous
 62
   136
370
     9
100
AcDbHatch
 10
0.0
 20
0.0
 30
0.0
210
0.0
220
0.0
230
1.0
  2
SOLID
 70
     1
 71
     0
 91
        1
 92
        1
 93
        3
 72
     1
 10
1260.148710957542
 20
1397.375988156241
 11
1260.148710957542
 21
1389.442654640121
 72
     1
 10
1260.148710957542
 20
1389.442654640121
 11
1283.948711505905
 21
1393.409321398181
 72
     1
 10
1283.948711505905
 20
1393.409321398181
 11
1260.148710957542
 21
1397.375988156241
 97
        0
 75
     0
 76
     1
 98
        0
  0
HATCH
  5
E9
330
E6
100
AcDbEntity
  8
Default
  6
Continuous
 62
   136
370
     9
100
AcDbHatch
 10
0.0
 20
0.0
 30
0.0
210
0.0
220
0.0
230
1.0
  2
SOLID
 70
     1
 71
     0
 91
        1
 92
        1
 93
        3
 72
     1
 10
1328.118475072801
 20
1397.375988156241
 11
1304.318474524439
 21
1393.409321398181
 72
     1
 10
1304.318474524439
 20
1393.409321398181
 11
1328.118475072801
 21
1389.442654640121
 72
     1
 10
1328.118475072801
 20
1389.442654640121
 11
1328.118475072801
 21
1397.375988156241
 97
        0
 75
     0
 76
     1
 98
        0
  0
LINE
  5
EA
330
E6
100
AcDbEntity
  8
Default
  6
Continuous
 62
   136
370
     9
100
AcDbLine
 10
1283.9487115059
 20
1193.4663172222
 30
0.0
 11
1283.9487115059
 21
1407.4093218303
 31
0.0
  0
LINE
  5
EB
330
E6
100
AcDbEntity
  8
Default
  6
Continuous
 62
   136
370
     9
100
AcDbLine
 10
1304.3184745244
 20
1079.7717978619
 30
0.0
 11
1304.3184745244
 21
1407.4093218303
 31
0.0
  0
LINE
  5
EC
330
E6
100
AcDbEntity
  8
Default
  6
Continuous
 62
   136
370
     9
100
AcDbLine
 10
1198.1685081635
 20
1393.4093213982
 30
0.0
 11
1351.9184732947
 21
1393.4093213982
 31
0.0
  0
TEXT
  5
ED
330
E6
100
AcDbEntity
  8
Default
  6
Continuous
 62
   136
370
     9
100
AcDbText
 10
1207.9685052884
 20
1400.4093213982
 30
0.0
 40
28.0
  1
20
  7
SEACAD_seiso_ttf
 11
1207.9685052884
 21
1428.4093213982
 31
0.0
100
AcDbText
 73
     3
  0
ENDBLK
  5
EF
330
E6
100
AcDbEntity
  8
0
100
AcDbBlockEnd
  0
BLOCK
  5
F8
330
F0
100
AcDbEntity
  8
0
100
AcDbBlockBegin
  2
GDimGGroup4
 70
     0
 71
     0
 10
0.0
 20
0.0
 30
0.0
  3
GDimGGroup4
  1

  0
HATCH
  5
F2
330
F0
100
AcDbEntity
  8
Default
  6
Continuous
 62
   136
370
     9
100
AcDbHatch
 10
0.0
 20
0.0
 30
0.0
210
0.0
220
0.0
230
1.0
  2
SOLID
 70
     1
 71
     0
 91
        1
 92
        1
 93
        3
 72
     1
 10
1307.748712054268
 20
1475.23723760311
 11
1283.948711505905
 21
1471.27057084505
 72
     1
 10
1283.948711505905
 20
1471.27057084505
 11
1307.748712054268
 21
1467.303904086989
 72
     1
 10
1307.748712054268
 20
1467.303904086989
 11
1307.748712054268
 21
1475.23723760311
 97
        0
 75
     0
 76
     1
 98
        0
  0
HATCH
  5
F3
330
F0
100
AcDbEntity
  8
Default
  6
Continuous
 62
   136
370
     9
100
AcDbHatch
 10
0.0
 20
0.0
 30
0.0
210
0.0
220
0.0
230
1.0
  2
SOLID
 70
     1
 71
     0
 91
        1
 92
        1
 93
        3
 72
     1
 10
1408.148712864891
 20
1475.23723760311
 11
1408.148712864891
 21
1467.303904086989
 72
     1
 10
1408.148712864891
 20
1467.303904086989
 11
1431.948713413253
 21
1471.27057084505
 72
     1
 10
1431.948713413253
 20
1471.27057084505
 11
1408.148712864891
 21
1475.23723760311
 97
        0
 75
     0
 76
     1
 98
        0
  0
LINE
  5
F4
330
F0
100
AcDbEntity
  8
Default
  6
Continuous
 62
   136
370
     9
100
AcDbLine
 10
1283.9487115059
 20
1193.4663172222
 30
0.0
 11
1283.9487115059
 21
1485.2705712772
 31
0.0
  0
LINE
  5
F5
330
F0
100
AcDbEntity
  8
Default
  6
Continuous
 62
   136
370
     9
100
AcDbLine
 10
1431.9487115059
 20
1353.9054185206
 30
0.0
 11
1431.9487115059
 21
1485.2705712772
 31
0.0
  0
LINE
  5
F6
330
F0
100
AcDbEntity
  8
Default
  6
Continuous
 62
   136
370
     9
100
AcDbLine
 10
1283.9487115059
 20
1471.270570845
 30
0.0
 11
1431.9487134133
 21
1471.270570845
 31
0.0
  0
TEXT
  5
F7
330
F0
100
AcDbEntity
  8
Default
  6
Continuous
 62
   136
370
     9
100
AcDbText
 10
1335.0396215505
 20
1478.270570845
 30
0.0
 40
28.0
  1
148
  7
SEACAD_seiso_ttf
 11
1335.0396215505
 21
1506.270570845
 31
0.0
100
AcDbText
 73
     3
  0
ENDBLK
  5
F9
330
F0
100
AcDbEntity
  8
0
100
AcDbBlockEnd
  0
BLOCK
  5
102
330
FA
100
AcDbEntity
  8
0
100
AcDbBlockBegin
  2
GDimGGroup5
 70
     0
 71
     0
 10
0.0
 20
0.0
 30
0.0
  3
GDimGGroup5
  1

  0
HATCH
  5
FC
330
FA
100
AcDbEntity
  8
Default
  6
Continuous
 62
   136
370
     9
100
AcDbHatch
 10
0.0
 20
0.0
 30
0.0
210
0.0
220
0.0
230
1.0
  2
SOLID
 70
     1
 71
     0
 91
        1
 92
        1
 93
        3
 72
     1
 10
1328.118475073148
 20
592.8622495924305
 11
1328.118475073148
 21
600.7955831085515
 72
     1
 10
1328.118475073148
 20
600.7955831085515
 11
1304.318474524785
 21
596.828916350491
 72
     1
 10
1304.318474524785
 20
596.828916350491
 11
1328.118475073148
 21
592.8622495924305
 97
        0
 75
     0
 76
     1
 98
        0
  0
HATCH
  5
FD
330
FA
100
AcDbEntity
  8
Default
  6
Continuous
 62
   136
370
     9
100
AcDbHatch
 10
0.0
 20
0.0
 30
0.0
210
0.0
220
0.0
230
1.0
  2
SOLID
 70
     1
 71
     0
 91
        1
 92
        1
 93
        3
 72
     1
 10
1408.148707741071
 20
592.8622495924305
 11
1431.948708289433
 21
596.828916350491
 72
     1
 10
1431.948708289433
 20
596.828916350491
 11
1408.148707741071
 21
600.7955831085515
 72
     1
 10
1408.148707741071
 20
600.7955831085515
 11
1408.148707741071
 21
592.8622495924305
 97
        0
 75
     0
 76
     1
 98
        0
  0
LINE
  5
FE
330
FA
100
AcDbEntity
  8
Default
  6
Continuous
 62
   136
370
     9
100
AcDbLine
 10
1304.3184745248
 20
982.7905662899
 30
0.0
 11
1304.3184745248
 21
582.8289159184
 31
0.0
  0
LINE
  5
FF
330
FA
100
AcDbEntity
  8
Default
  6
Continuous
 62
   136
370
     9
100
AcDbLine
 10
1431.9487115059
 20
708.6569456308
 30
0.0
 11
1431.9487115059
 21
582.8289159184
 31
0.0
  0
LINE
  5
100
330
FA
100
AcDbEntity
  8
Default
  6
Continuous
 62
   136
370
     9
100
AcDbLine
 10
1304.3184745248
 20
596.8289163505
 30
0.0
 11
1431.9487082894
 21
596.8289163505
 31
0.0
  0
TEXT
  5
101
330
FA
100
AcDbEntity
  8
Default
  6
Continuous
 62
   136
370
     9
100
AcDbText
 10
1344.9063186798
 20
603.8289163505
 30
0.0
 40
28.0
  1
128
  7
SEACAD_seiso_ttf
 11
1344.9063186798
 21
631.8289163505
 31
0.0
100
AcDbText
 73
     3
  0
ENDBLK
  5
103
330
FA
100
AcDbEntity
  8
0
100
AcDbBlockEnd
  0
BLOCK
  5
10D
330
104
100
AcDbEntity
  8
0
100
AcDbBlockBegin
  2
GDimGGroup6
 70
     0
 71
     0
 10
0.0
 20
0.0
 30
0.0
  3
GDimGGroup6
  1

  0
HATCH
  5
106
330
104
100
AcDbEntity
  8
Default
  6
Continuous
 62
   136
370
     9
100
AcDbHatch
 10
0.0
 20
0.0
 30
0.0
210
0.0
220
0.0
230
1.0
  2
SOLID
 70
     1
 71
     0
 91
        1
 92
        1
 93
        3
 72
     1
 10
1165.858597689607
 20
1096.859394460416
 11
1169.825264447667
 21
1073.059393912053
 72
     1
 10
1169.825264447667
 20
1073.059393912053
 11
1173.791931205727
 21
1096.859394460416
 72
     1
 10
1173.791931205727
 20
1096.859394460416
 11
1165.858597689607
 21
1096.859394460416
 97
        0
 75
     0
 76
     1
 98
        0
  0
HATCH
  5
107
330
104
100
AcDbEntity
  8
Default
  6
Continuous
 62
   136
370
     9
100
AcDbHatch
 10
0.0
 20
0.0
 30
0.0
210
0.0
220
0.0
230
1.0
  2
SOLID
 70
     1
 71
     0
 91
        1
 92
        1
 93
        3
 72
     1
 10
1165.858597689607
 20
965.7029696909499
 11
1173.791931205727
 21
965.7029696909499
 72
     1
 10
1173.791931205727
 20
965.7029696909499
 11
1169.825264447667
 21
989.5029702393126
 72
     1
 10
1169.825264447667
 20
989.5029702393126
 11
1165.858597689607
 21
965.7029696909499
 97
        0
 75
     0
 76
     1
 98
        0
  0
LINE
  5
108
330
104
100
AcDbEntity
  8
Default
  6
Continuous
 62
   136
370
     9
100
AcDbLine
 10
1275.907038906
 20
1073.0593939121
 30
0.0
 11
1155.8252640155
 21
1073.0593939121
 31
0.0
  0
LINE
  5
109
330
104
100
AcDbEntity
  8
Default
  6
Continuous
 62
   136
370
     9
100
AcDbLine
 10
1275.907038906
 20
989.5029702393
 30
0.0
 11
1155.8252640155
 21
989.5029702393
 31
0.0
  0
LINE
  5
10A
330
104
100
AcDbEntity
  8
Default
  6
Continuous
 62
   136
370
     9
100
AcDbLine
 10
1169.8252644477
 20
1186.7070187623
 30
0.0
 11
1169.8252644477
 21
941.9029642637
 31
0.0
  0
TEXT
  5
10B
330
104
100
AcDbEntity
  8
Default
  6
Continuous
 62
   136
370
     9
100
AcDbText
 10
1162.8252644477
 20
1142.5433848379
 30
0.0
 40
28.0
  1
84
 50
90.0
  7
SEACAD_seiso_ttf
 11
1134.8252644477
 21
1142.5433848379
 31
0.0
100
AcDbText
 73
     3
  0
TEXT
  5
10C
330
104
100
AcDbEntity
  8
Default
  6
Continuous
 62
   136
370
     9
100
AcDbText
 10
1162.8252644477
 20
1091.7643455366
 30
0.0
 40
28.0
  1
O
 50
90.0
  7
SEACAD_semeci1_ttf
 11
1134.8252644477
 21
1091.7643455366
 31
0.0
100
AcDbText
 73
     3
  0
ENDBLK
  5
10E
330
104
100
AcDbEntity
  8
0
100
AcDbBlockEnd
  0
BLOCK
  5
12A
330
122
100
AcDbEntity
  8
0
100
AcDbBlockBegin
  2
GDimGGroup7
 70
     0
 71
     0
 10
0.0
 20
0.0
 30
0.0
  3
GDimGGroup7
  1

  0
HATCH
  5
124
330
122
100
AcDbEntity
  8
Default
  6
Continuous
 62
   136
370
     9
100
AcDbHatch
 10
0.0
 20
0.0
 30
0.0
210
0.0
220
0.0
230
1.0
  2
SOLID
 70
     1
 71
     0
 91
        1
 92
        1
 93
        3
 72
     1
 10
494.8211120747505
 20
508.6812608325708
 11
471.0211115263878
 21
504.7145940745104
 72
     1
 10
471.0211115263878
 20
504.7145940745104
 11
494.8211120747505
 21
500.7479273164499
 72
     1
 10
494.8211120747505
 20
500.7479273164499
 11
494.8211120747505
 21
508.6812608325708
 97
        0
 75
     0
 76
     1
 98
        0
  0
HATCH
  5
125
330
122
100
AcDbEntity
  8
Default
  6
Continuous
 62
   136
370
     9
100
AcDbHatch
 10
0.0
 20
0.0
 30
0.0
210
0.0
220
0.0
230
1.0
  2
SOLID
 70
     1
 71
     0
 91
        1
 92
        1
 93
        3
 72
     1
 10
632.2211133622109
 20
508.6812608325708
 11
632.2211133622109
 21
500.7479273164499
 72
     1
 10
632.2211133622109
 20
500.7479273164499
 11
656.0211139105736
 21
504.7145940745104
 72
     1
 10
656.0211139105736
 20
504.7145940745104
 11
632.2211133622109
 21
508.6812608325708
 97
        0
 75
     0
 76
     1
 98
        0
  0
LINE
  5
126
330
122
100
AcDbEntity
  8
Default
  6
Continuous
 62
   136
370
     9
100
AcDbLine
 10
471.0211115264
 20
418.4388470286
 30
0.0
 11
471.0211115264
 21
518.7145945066
 31
0.0
  0
LINE
  5
127
330
122
100
AcDbEntity
  8
Default
  6
Continuous
 62
   136
370
     9
100
AcDbLine
 10
656.0211115264
 20
418.4388470286
 30
0.0
 11
656.0211115264
 21
518.7145945066
 31
0.0
  0
LINE
  5
128
330
122
100
AcDbEntity
  8
Default
  6
Continuous
 62
   136
370
     9
100
AcDbLine
 10
471.0211115264
 20
504.7145940745
 30
0.0
 11
656.0211139106
 21
504.7145940745
 31
0.0
  0
TEXT
  5
129
330
122
100
AcDbEntity
  8
Default
  6
Continuous
 62
   136
370
     9
100
AcDbText
 10
540.9302036276
 20
511.7145940745
 30
0.0
 40
28.0
  1
185
  7
SEACAD_seiso_ttf
 11
540.9302036276
 21
539.7145940745
 31
0.0
100
AcDbText
 73
     3
  0
ENDBLK
  5
12B
330
122
100
AcDbEntity
  8
0
100
AcDbBlockEnd
  0
BLOCK
  5
134
330
12C
100
AcDbEntity
  8
0
100
AcDbBlockBegin
  2
GDimGGroup8
 70
     0
 71
     0
 10
0.0
 20
0.0
 30
0.0
  3
GDimGGroup8
  1

  0
HATCH
  5
12E
330
12C
100
AcDbEntity
  8
Default
  6
Continuous
 62
   136
370
     9
100
AcDbHatch
 10
0.0
 20
0.0
 30
0.0
210
0.0
220
0.0
230
1.0
  2
SOLID
 70
     1
 71
     0
 91
        1
 92
        1
 93
        3
 72
     1
 10
1006.023613745614
 20
389.6192574835187
 11
1002.056946987554
 21
413.4192580318814
 72
     1
 10
1002.056946987554
 20
413.4192580318814
 11
998.0902802294933
 21
389.6192574835187
 72
     1
 10
998.0902802294933
 20
389.6192574835187
 11
1006.023613745614
 21
389.6192574835187
 97
        0
 75
     0
 76
     1
 98
        0
  0
HATCH
  5
12F
330
12C
100
AcDbEntity
  8
Default
  6
Continuous
 62
   136
370
     9
100
AcDbHatch
 10
0.0
 20
0.0
 30
0.0
210
0.0
220
0.0
230
1.0
  2
SOLID
 70
     1
 71
     0
 91
        1
 92
        1
 93
        3
 72
     1
 10
1006.023613745614
 20
289.2192566728955
 11
998.0902802294933
 21
289.2192566728955
 72
     1
 10
998.0902802294933
 20
289.2192566728955
 11
1002.056946987554
 21
265.4192561245328
 72
     1
 10
1002.056946987554
 20
265.4192561245328
 11
1006.023613745614
 21
289.2192566728955
 97
        0
 75
     0
 76
     1
 98
        0
  0
LINE
  5
130
330
12C
100
AcDbEntity
  8
Default
  6
Continuous
 62
   136
370
     9
100
AcDbLine
 10
665.0211140609
 20
413.4192580319
 30
0.0
 11
1016.0569474197
 21
413.4192580319
 31
0.0
  0
LINE
  5
131
330
12C
100
AcDbEntity
  8
Default
  6
Continuous
 62
   136
370
     9
100
AcDbLine
 10
798.2629889675
 20
265.4192580319
 30
0.0
 11
1016.0569474197
 21
265.4192580319
 31
0.0
  0
LINE
  5
132
330
12C
100
AcDbEntity
  8
Default
  6
Continuous
 62
   136
370
     9
100
AcDbLine
 10
1002.0569469876
 20
413.4192580319
 30
0.0
 11
1002.0569469876
 21
265.4192561245
 31
0.0
  0
TEXT
  5
133
330
12C
100
AcDbEntity
  8
Default
  6
Continuous
 62
   136
370
     9
100
AcDbText
 10
995.0569469876
 20
316.5101661691
 30
0.0
 40
28.0
  1
148
 50
90.0
  7
SEACAD_seiso_ttf
 11
967.0569469876
 21
316.5101661691
 31
0.0
100
AcDbText
 73
     3
  0
ENDBLK
  5
135
330
12C
100
AcDbEntity
  8
0
100
AcDbBlockEnd
  0
BLOCK
  5
13E
330
136
100
AcDbEntity
  8
0
100
AcDbBlockBegin
  2
GDimGGroup9
 70
     0
 71
     0
 10
0.0
 20
0.0
 30
0.0
  3
GDimGGroup9
  1

  0
HATCH
  5
138
330
136
100
AcDbEntity
  8
Default
  6
Continuous
 62
   136
370
     9
100
AcDbHatch
 10
0.0
 20
0.0
 30
0.0
210
0.0
220
0.0
230
1.0
  2
SOLID
 70
     1
 71
     0
 91
        1
 92
        1
 93
        3
 72
     1
 10
1533.151504543965
 20
1007.48118152732
 11
1529.184837785905
 21
1031.281182075683
 72
     1
 10
1529.184837785905
 20
1031.281182075683
 11
1525.218171027844
 21
1007.48118152732
 72
     1
 10
1525.218171027844
 20
1007.48118152732
 11
1533.151504543965
 21
1007.48118152732
 97
        0
 75
     0
 76
     1
 98
        0
  0
HATCH
  5
139
330
136
100
AcDbEntity
  8
Default
  6
Continuous
 62
   136
370
     9
100
AcDbHatch
 10
0.0
 20
0.0
 30
0.0
210
0.0
220
0.0
230
1.0
  2
SOLID
 70
     1
 71
     0
 91
        1
 92
        1
 93
        3
 72
     1
 10
1533.151504543965
 20
738.2986485015786
 11
1525.218171027844
 21
738.2986485015786
 72
     1
 10
1525.218171027844
 20
738.2986485015786
 11
1529.184837785905
 21
714.4986479532158
 72
     1
 10
1529.184837785905
 20
714.4986479532158
 11
1533.151504543965
 21
738.2986485015786
 97
        0
 75
     0
 76
     1
 98
        0
  0
LINE
  5
13A
330
136
100
AcDbEntity
  8
Default
  6
Continuous
 62
   136
370
     9
100
AcDbLine
 10
1336.3314782804
 20
1031.2811820757
 30
0.0
 11
1543.184838218
 21
1031.2811820757
 31
0.0
  0
LINE
  5
13B
330
136
100
AcDbEntity
  8
Default
  6
Continuous
 62
   136
370
     9
100
AcDbLine
 10
1439.9380784198
 20
714.4986400572
 30
0.0
 11
1543.184838218
 21
714.4986400572
 31
0.0
  0
LINE
  5
13C
330
136
100
AcDbEntity
  8
Default
  6
Continuous
 62
   136
370
     9
100
AcDbLine
 10
1529.1848377859
 20
1031.2811820757
 30
0.0
 11
1529.1848377859
 21
714.4986479532
 31
0.0
  0
TEXT
  5
13D
330
136
100
AcDbEntity
  8
Default
  6
Continuous
 62
   136
370
     9
100
AcDbText
 10
1522.1848377859
 20
850.9353695599
 30
0.0
 40
28.0
  1
317
 50
90.0
  7
SEACAD_seiso_ttf
 11
1494.1848377859
 21
850.9353695599
 31
0.0
100
AcDbText
 73
     3
  0
ENDBLK
  5
13F
330
136
100
AcDbEntity
  8
0
100
AcDbBlockEnd
  0
BLOCK
  5
15B
330
153
100
AcDbEntity
  8
0
100
AcDbBlockBegin
  2
GDimGGroup10
 70
     0
 71
     0
 10
0.0
 20
0.0
 30
0.0
  3
GDimGGroup10
  1

  0
HATCH
  5
155
330
153
100
AcDbEntity
  8
Default
  6
Continuous
 62
   136
370
     9
100
AcDbHatch
 10
0.0
 20
0.0
 30
0.0
210
0.0
220
0.0
230
1.0
  2
SOLID
 70
     1
 71
     0
 91
        1
 92
        1
 93
        3
 72
     1
 10
1001.943150837591
 20
1192.480999002004
 11
1009.876484353712
 21
1192.480999002004
 72
     1
 10
1009.876484353712
 20
1192.480999002004
 11
1005.909817595651
 21
1216.280999550366
 72
     1
 10
1005.909817595651
 20
1216.280999550366
 11
1001.943150837591
 21
1192.480999002004
 97
        0
 75
     0
 76
     1
 98
        0
  0
HATCH
  5
156
330
153
100
AcDbEntity
  8
Default
  6
Continuous
 62
   136
370
     9
100
AcDbHatch
 10
0.0
 20
0.0
 30
0.0
210
0.0
220
0.0
230
1.0
  2
SOLID
 70
     1
 71
     0
 91
        1
 92
        1
 93
        3
 72
     1
 10
1001.943150837591
 20
870.0813529582263
 11
1005.909817595651
 21
846.2813524098635
 72
     1
 10
1005.909817595651
 20
846.2813524098635
 11
1009.876484353712
 21
870.0813529582263
 72
     1
 10
1009.876484353712
 20
870.0813529582263
 11
1001.943150837591
 21
870.0813529582263
 97
        0
 75
     0
 76
     1
 98
        0
  0
LINE
  5
157
330
153
100
AcDbEntity
  8
Default
  6
Continuous
 62
   136
370
     9
100
AcDbLine
 10
1278.9785417958
 20
1216.2809995504
 30
0.0
 11
991.9098171635
 21
1216.2809995504
 31
0.0
  0
LINE
  5
158
330
153
100
AcDbEntity
  8
Default
  6
Continuous
 62
   136
370
     9
100
AcDbLine
 10
1278.9785417958
 20
846.281364601
 30
0.0
 11
991.9098171635
 21
846.281364601
 31
0.0
  0
LINE
  5
159
330
153
100
AcDbEntity
  8
Default
  6
Continuous
 62
   136
370
     9
100
AcDbLine
 10
1005.9098175957
 20
1216.2809995504
 30
0.0
 11
1005.9098175957
 21
846.2813524099
 31
0.0
  0
TEXT
  5
15A
330
153
100
AcDbEntity
  8
Default
  6
Continuous
 62
   136
370
     9
100
AcDbText
 10
998.9098175957
 20
1006.7811759801
 30
0.0
 40
28.0
  1
370
 50
90.0
  7
SEACAD_seiso_ttf
 11
970.9098175957
 21
1006.7811759801
 31
0.0
100
AcDbText
 73
     3
  0
ENDBLK
  5
15C
330
153
100
AcDbEntity
  8
0
100
AcDbBlockEnd
  0
BLOCK
  5
165
330
15D
100
AcDbEntity
  8
0
100
AcDbBlockBegin
  2
GDimGGroup11
 70
     0
 71
     0
 10
0.0
 20
0.0
 30
0.0
  3
GDimGGroup11
  1

  0
HATCH
  5
15F
330
15D
100
AcDbEntity
  8
Default
  6
Continuous
 62
   136
370
     9
100
AcDbHatch
 10
0.0
 20
0.0
 30
0.0
210
0.0
220
0.0
230
1.0
  2
SOLID
 70
     1
 71
     0
 91
        1
 92
        1
 93
        3
 72
     1
 10
1092.985418013111
 20
1055.081182624046
 11
1096.952084771171
 21
1031.281182075683
 72
     1
 10
1096.952084771171
 20
1031.281182075683
 11
1100.918751529231
 21
1055.081182624046
 72
     1
 10
1100.918751529231
 20
1055.081182624046
 11
1092.985418013111
 21
1055.081182624046
 97
        0
 75
     0
 76
     1
 98
        0
  0
HATCH
  5
160
330
15D
100
AcDbEntity
  8
Default
  6
Continuous
 62
   136
370
     9
100
AcDbHatch
 10
0.0
 20
0.0
 30
0.0
210
0.0
220
0.0
230
1.0
  2
SOLID
 70
     1
 71
     0
 91
        1
 92
        1
 93
        3
 72
     1
 10
1092.985418013111
 20
1192.481005097572
 11
1100.918751529231
 21
1192.481005097572
 72
     1
 10
1100.918751529231
 20
1192.481005097572
 11
1096.952084771171
 21
1216.281005645934
 72
     1
 10
1096.952084771171
 20
1216.281005645934
 11
1092.985418013111
 21
1192.481005097572
 97
        0
 75
     0
 76
     1
 98
        0
  0
LINE
  5
161
330
15D
100
AcDbEntity
  8
Default
  6
Continuous
 62
   136
370
     9
100
AcDbLine
 10
1241.9487110738
 20
1031.2811820757
 30
0.0
 11
1082.952084339
 21
1031.2811820757
 31
0.0
  0
LINE
  5
162
330
15D
100
AcDbEntity
  8
Default
  6
Continuous
 62
   136
370
     9
100
AcDbLine
 10
1278.9785417958
 20
1216.2809995504
 30
0.0
 11
1082.952084339
 21
1216.2809995504
 31
0.0
  0
LINE
  5
163
330
15D
100
AcDbEntity
  8
Default
  6
Continuous
 62
   136
370
     9
100
AcDbLine
 10
1096.9520847712
 20
1031.2811820757
 30
0.0
 11
1096.9520847712
 21
1216.2810056459
 31
0.0
  0
TEXT
  5
164
330
15D
100
AcDbEntity
  8
Default
  6
Continuous
 62
   136
370
     9
100
AcDbText
 10
1089.9520847712
 20
1101.1901847699
 30
0.0
 40
28.0
  1
185
 50
90.0
  7
SEACAD_seiso_ttf
 11
1061.9520847712
 21
1101.1901847699
 31
0.0
100
AcDbText
 73
     3
  0
ENDBLK
  5
166
330
15D
100
AcDbEntity
  8
0
100
AcDbBlockEnd
  0
BLOCK
  5
16F
330
167
100
AcDbEntity
  8
0
100
AcDbBlockBegin
  2
GDimGGroup12
 70
     0
 71
     0
 10
0.0
 20
0.0
 30
0.0
  3
GDimGGroup12
  1

  0
HATCH
  5
169
330
167
100
AcDbEntity
  8
Default
  6
Continuous
 62
   136
370
     9
100
AcDbHatch
 10
0.0
 20
0.0
 30
0.0
210
0.0
220
0.0
230
1.0
  2
SOLID
 70
     1
 71
     0
 91
        1
 92
        1
 93
        3
 72
     1
 10
1646.948714073178
 20
1311.713043414481
 11
1642.982047315118
 21
1335.513043962844
 72
     1
 10
1642.982047315118
 20
1335.513043962844
 11
1639.015380557057
 21
1311.713043414481
 72
     1
 10
1639.015380557057
 20
1311.713043414481
 11
1646.948714073178
 21
1311.713043414481
 97
        0
 75
     0
 76
     1
 98
        0
  0
HATCH
  5
16A
330
167
100
AcDbEntity
  8
Default
  6
Continuous
 62
   136
370
     9
100
AcDbHatch
 10
0.0
 20
0.0
 30
0.0
210
0.0
220
0.0
230
1.0
  2
SOLID
 70
     1
 71
     0
 91
        1
 92
        1
 93
        3
 72
     1
 10
1646.948714073178
 20
750.8493399251777
 11
1639.015380557057
 21
750.8493399251777
 72
     1
 10
1639.015380557057
 20
750.8493399251777
 11
1642.982047315118
 21
727.0493393768149
 72
     1
 10
1642.982047315118
 20
727.0493393768149
 11
1646.948714073178
 21
750.8493399251777
 97
        0
 75
     0
 76
     1
 98
        0
  0
LINE
  5
16B
330
167
100
AcDbEntity
  8
Default
  6
Continuous
 62
   136
370
     9
100
AcDbLine
 10
1444.0361394392
 20
1335.5130439628
 30
0.0
 11
1656.9820477473
 21
1335.5130439628
 31
0.0
  0
LINE
  5
16C
330
167
100
AcDbEntity
  8
Default
  6
Continuous
 62
   136
370
     9
100
AcDbLine
 10
1444.0361394392
 20
727.0493201886
 30
0.0
 11
1656.9820477473
 21
727.0493201886
 31
0.0
  0
LINE
  5
16D
330
167
100
AcDbEntity
  8
Default
  6
Continuous
 62
   136
370
     9
100
AcDbLine
 10
1642.9820473151
 20
1335.5130439628
 30
0.0
 11
1642.9820473151
 21
727.0493393768
 31
0.0
  0
TEXT
  5
16E
330
167
100
AcDbEntity
  8
Default
  6
Continuous
 62
   136
370
     9
100
AcDbText
 10
1635.9820473151
 20
1005.5084643971
 30
0.0
 40
28.0
  1
608
 50
90.0
  7
SEACAD_seiso_ttf
 11
1607.9820473151
 21
1005.5084643971
 31
0.0
100
AcDbText
 73
     3
  0
ENDBLK
  5
170
330
167
100
AcDbEntity
  8
0
100
AcDbBlockEnd
  0
BLOCK
  5
179
330
171
100
AcDbEntity
  8
0
100
AcDbBlockBegin
  2
GDimGGroup13
 70
     0
 71
     0
 10
0.0
 20
0.0
 30
0.0
  3
GDimGGroup13
  1

  0
HATCH
  5
173
330
171
100
AcDbEntity
  8
Default
  6
Continuous
 62
   136
370
     9
100
AcDbHatch
 10
0.0
 20
0.0
 30
0.0
210
0.0
220
0.0
230
1.0
  2
SOLID
 70
     1
 71
     0
 91
        1
 92
        1
 93
        3
 72
     1
 10
366.5958873841123
 20
129.3157628327376
 11
366.5958873841123
 21
137.2490963488586
 72
     1
 10
366.5958873841123
 20
137.2490963488586
 11
342.7958868357496
 21
133.2824295907981
 72
     1
 10
342.7958868357496
 20
133.2824295907981
 11
366.5958873841123
 21
129.3157628327376
 97
        0
 75
     0
 76
     1
 98
        0
  0
HATCH
  5
174
330
171
100
AcDbEntity
  8
Default
  6
Continuous
 62
   136
370
     9
100
AcDbHatch
 10
0.0
 20
0.0
 30
0.0
210
0.0
220
0.0
230
1.0
  2
SOLID
 70
     1
 71
     0
 91
        1
 92
        1
 93
        3
 72
     1
 10
760.4629926297025
 20
129.3157628327376
 11
784.2629931780652
 21
133.2824295907981
 72
     1
 10
784.2629931780652
 20
133.2824295907981
 11
760.4629926297025
 21
137.2490963488586
 72
     1
 10
760.4629926297025
 20
137.2490963488586
 11
760.4629926297025
 21
129.3157628327376
 97
        0
 75
     0
 76
     1
 98
        0
  0
LINE
  5
175
330
171
100
AcDbEntity
  8
Default
  6
Continuous
 62
   136
370
     9
100
AcDbLine
 10
342.7958868357
 20
251.4192807078
 30
0.0
 11
342.7958868357
 21
119.2824291587
 31
0.0
  0
LINE
  5
176
330
171
100
AcDbEntity
  8
Default
  6
Continuous
 62
   136
370
     9
100
AcDbLine
 10
784.2629885353
 20
251.4192575997
 30
0.0
 11
784.2629885353
 21
119.2824291587
 31
0.0
  0
LINE
  5
177
330
171
100
AcDbEntity
  8
Default
  6
Continuous
 62
   136
370
     9
100
AcDbLine
 10
342.7958868357
 20
133.2824295908
 30
0.0
 11
784.2629931781
 21
133.2824295908
 31
0.0
  0
TEXT
  5
178
330
171
100
AcDbEntity
  8
Default
  6
Continuous
 62
   136
370
     9
100
AcDbText
 10
541.2567127342
 20
140.2824295908
 30
0.0
 40
28.0
  1
441
  7
SEACAD_seiso_ttf
 11
541.2567127342
 21
168.2824295908
 31
0.0
100
AcDbText
 73
     3
  0
ENDBLK
  5
17A
330
171
100
AcDbEntity
  8
0
100
AcDbBlockEnd
  0
BLOCK
  5
185
330
181
100
AcDbEntity
  8
0
100
AcDbBlockBegin
  2
SEANNOT_GROUP3
 70
     0
 71
     0
 10
0.0
 20
0.0
 30
0.0
  3
SEANNOT_GROUP3
  1

  0
TEXT
  5
184
330
181
100
AcDbEntity
  8
Default
  6
Continuous
 62
     7
370
     0
100
AcDbText
 10
1514.2895510415
 20
137.8046408992
 30
0.0
 40
24.0
  1
13/10/07
  7
SEACAD_arial_ttf
 11
1514.2895510415
 21
161.8046408992
 31
0.0
100
AcDbText
 73
     3
  0
ENDBLK
  5
186
330
181
100
AcDbEntity
  8
0
100
AcDbBlockEnd
  0
BLOCK
  5
195
330
191
100
AcDbEntity
  8
0
100
AcDbBlockBegin
  2
SEANNOT_GROUP4
 70
     0
 71
     0
 10
0.0
 20
0.0
 30
0.0
  3
SEANNOT_GROUP4
  1

  0
TEXT
  5
194
330
191
100
AcDbEntity
  8
Default
  6
Continuous
 62
     7
370
     0
100
AcDbText
 10
2196.2207174568
 20
71.728887387
 30
0.0
 40
32.0
  1
1 / 1
  7
SEACAD_seiso_ttfB
 11
2196.2207174568
 21
103.728887387
 31
0.0
100
AcDbText
 73
     3
  0
ENDBLK
  5
196
330
191
100
AcDbEntity
  8
0
100
AcDbBlockEnd
  0
BLOCK
  5
19E
330
19A
100
AcDbEntity
  8
0
100
AcDbBlockBegin
  2
SEANNOT_GROUP5
 70
     0
 71
     0
 10
0.0
 20
0.0
 30
0.0
  3
SEANNOT_GROUP5
  1

  0
LINE
  5
19C
330
19A
100
AcDbEntity
  8
Predefinito
  6
CENTER2
 62
   136
370
     9
100
AcDbLine
 10
2179.406079177
 20
225.1057846513
 30
0.0
 11
2109.406078879
 21
225.1057846513
 31
0.0
  0
LINE
  5
19D
330
19A
100
AcDbEntity
  8
Predefinito
  6
CENTER2
 62
   136
370
     9
100
AcDbLine
 10
2144.406079028
 20
260.1057848004
 30
0.0
 11
2144.406079028
 21
190.1057845023
 31
0.0
  0
ENDBLK
  5
19F
330
19A
100
AcDbEntity
  8
0
100
AcDbBlockEnd
  0
BLOCK
  5
1A7
330
1A4
100
AcDbEntity
  8
0
100
AcDbBlockBegin
  2
SEANNOT_GROUP6
 70
     0
 71
     0
 10
0.0
 20
0.0
 30
0.0
  3
SEANNOT_GROUP6
  1

  0
LINE
  5
1A6
330
1A4
100
AcDbEntity
  8
Predefinito
  6
CENTER2
 62
   136
370
     9
100
AcDbLine
 10
2116.6588384705
 20
225.1057846513
 30
0.0
 11
2041.3654380774
 21
225.1057846513
 31
0.0
  0
ENDBLK
  5
1A8
330
1A4
100
AcDbEntity
  8
0
100
AcDbBlockEnd
  0
BLOCK
  5
1C0
330
1BD
100
AcDbEntity
  8
0
100
AcDbBlockBegin
  2
SEANNOT_GROUP7
 70
     0
 71
     0
 10
0.0
 20
0.0
 30
0.0
  3
SEANNOT_GROUP7
  1

  0
TEXT
  5
1BF
330
1BD
100
AcDbEntity
  8
Predefinito
  6
Continuous
 62
     7
370
     0
100
AcDbText
 10
1710.1824109115
 20
71.0674875681
 30
0.0
 40
38.0
  1
Neck
  7
SEACAD_arial_ttf
 11
1710.1824109115
 21
109.0674875681
 31
0.0
100
AcDbText
 73
     3
  0
ENDBLK
  5
1C1
330
1BD
100
AcDbEntity
  8
0
100
AcDbBlockEnd
  0
BLOCK
  5
1C4
330
1C2
100
AcDbEntity
  8
0
100
AcDbBlockBegin
  2
SEANNOT_GROUP8
 70
     0
 71
     0
 10
0.0
 20
0.0
 30
0.0
  3
SEANNOT_GROUP8
  1

  0
ENDBLK
  5
1C5
330
1C2
100
AcDbEntity
  8
0
100
AcDbBlockEnd
  0
BLOCK
  5
1CB
330
1C8
100
AcDbEntity
  8
0
100
AcDbBlockBegin
  2
SEANNOT_GROUP9
 70
     0
 71
     0
 10
0.0
 20
0.0
 30
0.0
  3
SEANNOT_GROUP9
  1

  0
TEXT
  5
1CA
330
1C8
100
AcDbEntity
  8
Predefinito
  6
Continuous
 62
     7
370
     0
100
AcDbText
 10
1643.3909630789
 20
137.7709522727
 30
0.0
 40
24.0
  1
DESYS
  7
SEACAD_arial_ttf
 11
1643.3909630789
 21
161.7709522727
 31
0.0
100
AcDbText
 73
     3
  0
ENDBLK
  5
1CC
330
1C8
100
AcDbEntity
  8
0
100
AcDbBlockEnd
  0
BLOCK
  5
1D0
330
1CE
100
AcDbEntity
  8
0
100
AcDbBlockBegin
  2
SEANNOT_GROUP10
 70
     0
 71
     0
 10
0.0
 20
0.0
 30
0.0
  3
SEANNOT_GROUP10
  1

  0
ENDBLK
  5
1D1
330
1CE
100
AcDbEntity
  8
0
100
AcDbBlockEnd
  0
BLOCK
  5
1D6
330
1D3
100
AcDbEntity
  8
0
100
AcDbBlockBegin
  2
SEANNOT_GROUP11
 70
     0
 71
     0
 10
0.0
 20
0.0
 30
0.0
  3
SEANNOT_GROUP11
  1

  0
TEXT
  5
1D5
330
1D3
100
AcDbEntity
  8
Predefinito
  6
Continuous
 62
     7
370
     0
100
AcDbText
 10
1931.9481016641
 20
135.926799644
 30
0.0
 40
48.0
  1
8045
  7
SEACAD_arial_ttf
 11
1931.9481016641
 21
183.926799644
 31
0.0
100
AcDbText
 73
     3
  0
ENDBLK
  5
1D7
330
1D3
100
AcDbEntity
  8
0
100
AcDbBlockEnd
  0
BLOCK
  5
1DC
330
1D9
100
AcDbEntity
  8
0
100
AcDbBlockBegin
  2
SEANNOT_GROUP12
 70
     0
 71
     0
 10
0.0
 20
0.0
 30
0.0
  3
SEANNOT_GROUP12
  1

  0
TEXT
  5
1DB
330
1D9
100
AcDbEntity
  8
Predefinito
  6
Continuous
 62
     7
370
     0
100
AcDbText
 10
2218.2664727054
 20
132.7427435071
 30
0.0
 40
52.0
  1
0
  7
SEACAD_arial_ttf
 11
2218.2664727054
 21
184.7427435071
 31
0.0
100
AcDbText
 73
     3
  0
ENDBLK
  5
1DD
330
1D9
100
AcDbEntity
  8
0
100
AcDbBlockEnd
  0
ENDSEC
  0
SECTION
  2
ENTITIES
  0
TEXT
  5
2B
330
1F
100
AcDbEntity
  8
Default
  6
Continuous
 62
     7
100
AcDbText
 10
1789.5876400532
 20
513.6811604639
 30
0.0
 40
40.0
  1
Tolleranza    ± 5%
  7
SEACAD_seiso_ttf
 11
1789.5876400532
 21
553.6811604639
 31
0.0
100
AcDbText
 73
     3
  0
TEXT
  5
2D
330
1F
100
AcDbEntity
  8
Default
  6
Continuous
 62
     7
100
AcDbText
 10
1789.5876400532
 20
448.2266150094
 30
0.0
 40
40.0
  1
Tolerance     ± 5%
  7
SEACAD_seiso_ttf
 11
1789.5876400532
 21
488.2266150094
 31
0.0
100
AcDbText
 73
     3
  0
INSERT
  5
2F
330
1F
100
AcDbEntity
  8
Default
100
AcDbBlockReference
  2
SEANNOT_GROUP
 10
0.0
 20
0.0
 30
0.0
  0
INSERT
  5
35
330
1F
100
AcDbEntity
  8
Default
100
AcDbBlockReference
  2
SEANNOT_GROUP1
 10
0.0
 20
0.0
 30
0.0
  0
INSERT
  5
3A
330
1F
100
AcDbEntity
  8
Default
100
AcDbBlockReference
  2
SEANNOT_GROUP2
 10
0.0
 20
0.0
 30
0.0
  0
SPLINE
  5
3F
330
1F
100
AcDbEntity
  8
NECK
  6
Continuous
 62
     7
100
AcDbSpline
210
0.0
220
0.0
230
1.0
 70
    11
 71
     3
 72
   106
 73
   102
 74
     0
 42
0.0000000000059859
 43
0.0000000001
 40
0.0
 40
0.0
 40
0.0
 40
0.0
 40
0.03125
 40
0.03125
 40
0.0625
 40
0.0625
 40
0.0781250000000001
 40
0.0781250000000001
 40
0.09375
 40
0.09375
 40
0.125
 40
0.125
 40
0.1406249999999999
 40
0.1406249999999999
 40
0.1562499999999999
 40
0.1562499999999999
 40
0.1718749999999999
 40
0.1718749999999999
 40
0.1874999999999998
 40
0.1874999999999998
 40
0.2187499999999998
 40
0.2187499999999998
 40
0.2265624999999998
 40
0.2265624999999998
 40
0.2343749999999998
 40
0.2343749999999998
 40
0.2499999999999998
 40
0.2499999999999998
 40
0.2812499999999998
 40
0.2812499999999998
 40
0.2890624999999998
 40
0.2890624999999998
 40
0.2968749999999998
 40
0.2968749999999998
 40
0.3124999999999998
 40
0.3124999999999998
 40
0.3281249999999998
 40
0.3281249999999998
 40
0.3437499999999998
 40
0.3437499999999998
 40
0.3593749999999998
 40
0.3593749999999998
 40
0.3749999999999997
 40
0.3749999999999997
 40
0.4062499999999997
 40
0.4062499999999997
 40
0.4374999999999997
 40
0.4374999999999997
 40
0.4687499999999997
 40
0.4687499999999997
 40
0.4999999999999996
 40
0.4999999999999996
 40
0.5312499999999996
 40
0.5312499999999996
 40
0.5624999999999996
 40
0.5624999999999996
 40
0.5781249999999996
 40
0.5781249999999996
 40
0.5937499999999997
 40
0.5937499999999997
 40
0.6249999999999998
 40
0.6249999999999998
 40
0.6406249999999998
 40
0.6406249999999998
 40
0.6562499999999998
 40
0.6562499999999998
 40
0.6718749999999998
 40
0.6718749999999998
 40
0.6874999999999998
 40
0.6874999999999998
 40
0.7187499999999999
 40
0.7187499999999999
 40
0.7265624999999999
 40
0.7265624999999999
 40
0.7343749999999999
 40
0.7343749999999999
 40
0.7499999999999999
 40
0.7499999999999999
 40
0.78125
 40
0.78125
 40
0.7890625
 40
0.7890625
 40
0.796875
 40
0.796875
 40
0.8125
 40
0.8125
 40
0.828125
 40
0.828125
 40
0.84375
 40
0.84375
 40
0.859375
 40
0.859375
 40
0.875
 40
0.875
 40
0.90625
 40
0.90625
 40
0.9375000000000001
 40
0.9375000000000001
 40
0.9687500000000001
 40
0.9687500000000001
 40
1.0
 40
1.0
 40
1.0
 40
1.0
 10
782.35093783038
 20
1031.281185668906
 30
0.0
 10
782.3509379757097
 20
1013.815234059514
 30
0.0
 10
781.3014548567585
 20
996.5112149924416
 30
0.0
 10
777.1404723678885
 20
962.221340611059
 30
0.0
 10
774.0261285759302
 20
945.2359241836828
 30
0.0
 10
767.6934251580429
 20
920.0141164954817
 30
0.0
 10
765.303364218792
 20
911.6499208982763
 30
0.0
 10
759.921406518946
 20
895.014391408217
 30
0.0
 10
756.9590536953278
 20
886.8326020920947
 30
0.0
 10
747.230640499618
 20
862.7104720769245
 30
0.0
 10
739.630240808673
 20
847.1891206800851
 30
0.0
 10
726.2884621441871
 20
824.8823379184623
 30
0.0
 10
721.5155405060666
 20
817.6103556140564
 30
0.0
 10
711.2290633262703
 20
803.4384839292296
 30
0.0
 10
705.7686594559507
 20
796.6141062841631
 30
0.0
 10
694.2369754904738
 20
783.625814286639
 30
0.0
 10
688.1555666949548
 20
777.4463576431422
 30
0.0
 10
675.289645126242
 20
765.7885932997568
 30
0.0
 10
668.4898238727726
 20
760.297930839334
 30
0.0
 10
646.9682232743685
 20
745.1186957357387
 30
0.0
 10
631.6109648946954
 20
737.0196722494042
 30
0.0
 10
610.8975097538552
 20
729.9317867993017
 30
0.0
 10
606.6656889769345
 20
728.6666293035162
 30
0.0
 10
598.1783559495042
 20
726.5003863271587
 30
0.0
 10
593.9084327341361
 20
725.5932155633127
 30
0.0
 10
581.0190347513256
 20
723.405306604972
 30
0.0
 10
572.3199990990489
 20
722.6562314266267
 30
0.0
 10
545.8885814522578
 20
722.6582127699028
 30
0.0
 10
528.8219323413516
 20
725.6234904492313
 30
0.0
 10
508.1137385541654
 20
732.6727448995016
 30
0.0
 10
503.9937696750104
 20
734.2578407002458
 30
0.0
 10
495.9509785344154
 20
737.705036787604
 30
0.0
 10
492.0118857502527
 20
739.5717493256823
 30
0.0
 10
480.4258966499152
 20
745.5740707047185
 30
0.0
 10
473.0096499534947
 20
750.1107510678527
 30
0.0
 10
458.7373116038617
 20
760.1581530089878
 30
0.0
 10
451.8642804055879
 20
765.6938101272527
 30
0.0
 10
438.9579394329495
 20
777.3754281152603
 30
0.0
 10
432.8782218033219
 20
783.5505355712442
 30
0.0
 10
421.3774167048483
 20
796.4903270410504
 30
0.0
 10
415.9570694110397
 20
803.2556736267937
 30
0.0
 10
405.7210379575226
 20
817.3276344633249
 30
0.0
 10
400.8882218164264
 20
824.6689871067232
 30
0.0
 10
387.4601081710138
 20
847.0861357187498
 30
0.0
 10
379.8610382542892
 20
862.6114297696384
 30
0.0
 10
366.9275818923109
 20
894.6337157176293
 30
0.0
 10
361.5906188747986
 20
911.1485286947441
 30
0.0
 10
353.0551965657075
 20
945.0183289070858
 30
0.0
 10
349.9199967079057
 20
962.0938961478231
 30
0.0
 10
345.7388095296649
 20
996.5045278563688
 30
0.0
 10
344.6903474170307
 20
1013.839546159236
 30
0.0
 10
344.6922242745629
 20
1048.769225722505
 30
0.0
 10
345.7424958640842
 20
1066.072156122405
 30
0.0
 10
349.9048616596024
 20
1100.35988304674
 30
0.0
 10
353.019792766609
 20
1117.344241844718
 30
0.0
 10
359.3532600923732
 20
1142.564481151599
 30
0.0
 10
361.7435576648671
 20
1150.928156732804
 30
0.0
 10
367.1259511151843
 20
1167.562651979485
 30
0.0
 10
370.0884236288302
 20
1175.743718286573
 30
0.0
 10
379.8172325755041
 20
1199.864043347577
 30
0.0
 10
387.4178043718358
 20
1215.38423752589
 30
0.0
 10
400.7597137068267
 20
1237.689348509215
 30
0.0
 10
405.5326592055939
 20
1244.960783449512
 30
0.0
 10
415.8191424441921
 20
1259.13158133727
 30
0.0
 10
421.2794179612886
 20
1265.955298803195
 30
0.0
 10
432.8108847586155
 20
1278.942451583676
 30
0.0
 10
438.8921592265392
 20
1285.121364290589
 30
0.0
 10
451.7577591638224
 20
1296.778093589742
 30
0.0
 10
458.5574483275491
 20
1302.268302268391
 30
0.0
 10
480.0781986201243
 20
1317.446014000038
 30
0.0
 10
495.4347907071889
 20
1325.544220888767
 30
0.0
 10
516.1472698358568
 20
1332.631372085649
 30
0.0
 10
520.378874244067
 20
1333.896392846281
 30
0.0
 10
528.8657548266831
 20
1336.062398890752
 30
0.0
 10
533.1354489320254
 20
1336.96947053909
 30
0.0
 10
546.0241509358723
 20
1339.157140108596
 30
0.0
 10
554.7227110933711
 20
1339.906132651272
 30
0.0
 10
581.1526653766741
 20
1339.904151528543
 30
0.0
 10
598.2183994227288
 20
1336.939197562396
 30
0.0
 10
618.9255170051094
 20
1329.890709367816
 30
0.0
 10
623.0452900844077
 20
1328.305780295351
 30
0.0
 10
631.0877272133438
 20
1324.858933788174
 30
0.0
 10
635.026650444046
 20
1322.992408998946
 30
0.0
 10
646.612152019899
 20
1316.990687619203
 30
0.0
 10
654.0281018737871
 20
1312.454456246379
 30
0.0
 10
668.2998992285521
 20
1302.408043907682
 30
0.0
 10
675.17273247376
 20
1296.872895780338
 30
0.0
 10
688.0787742134202
 20
1285.192296334802
 30
0.0
 10
694.1583683934408
 20
1279.017721573488
 30
0.0
 10
705.6589767124649
 20
1266.079040358017
 30
0.0
 10
711.0792506050553
 20
1259.314271268046
 30
0.0
 10
721.3151859583327
 20
1245.24351080942
 30
0.0
 10
726.1479975180919
 20
1237.902762686214
 30
0.0
 10
739.5762778782648
 20
1215.487245728332
 30
0.0
 10
747.1755381805268
 20
1199.963073447048
 30
0.0
 10
760.1095457997573
 20
1167.943104188027
 30
0.0
 10
765.4468266708659
 20
1151.429680923222
 30
0.0
 10
773.9832967257387
 20
1117.561944758798
 30
0.0
 10
777.1190952701091
 20
1100.487418834488
 30
0.0
 10
781.3016821465583
 20
1066.07889488922
 30
0.0
 10
782.3509376850502
 20
1048.747137278299
 30
0.0
 10
782.35093783038
 20
1031.281185668906
 30
0.0
  0
SPLINE
  5
40
330
1F
100
AcDbEntity
  8
NECK
  6
Continuous
 62
     7
100
AcDbSpline
210
0.0
220
0.0
230
1.0
 70
    11
 71
     3
 72
   130
 73
   126
 74
     0
 42
0.0000000000060901
 43
0.0000000001
 40
0.0
 40
0.0
 40
0.0
 40
0.0
 40
0.015625
 40
0.015625
 40
0.0312499999999999
 40
0.0312499999999999
 40
0.0390624999999999
 40
0.0390624999999999
 40
0.0468749999999999
 40
0.0468749999999999
 40
0.0624999999999999
 40
0.0624999999999999
 40
0.0703124999999999
 40
0.0703124999999999
 40
0.0781249999999999
 40
0.0781249999999999
 40
0.0937499999999999
 40
0.0937499999999999
 40
0.1249999999999999
 40
0.1249999999999999
 40
0.1406249999999999
 40
0.1406249999999999
 40
0.1562499999999999
 40
0.1562499999999999
 40
0.1874999999999998
 40
0.1874999999999998
 40
0.2031249999999998
 40
0.2031249999999998
 40
0.2187499999999998
 40
0.2187499999999998
 40
0.2499999999999997
 40
0.2499999999999997
 40
0.2812499999999997
 40
0.2812499999999997
 40
0.2968749999999996
 40
0.2968749999999996
 40
0.3124999999999996
 40
0.3124999999999996
 40
0.3437499999999996
 40
0.3437499999999996
 40
0.3593749999999995
 40
0.3593749999999995
 40
0.3749999999999995
 40
0.3749999999999995
 40
0.4062499999999994
 40
0.4062499999999994
 40
0.4140624999999994
 40
0.4140624999999994
 40
0.4218749999999993
 40
0.4218749999999993
 40
0.4374999999999993
 40
0.4374999999999993
 40
0.4531249999999993
 40
0.4531249999999993
 40
0.4609374999999993
 40
0.4609374999999993
 40
0.4687499999999994
 40
0.4687499999999994
 40
0.4843749999999994
 40
0.4843749999999994
 40
0.4921874999999994
 40
0.4921874999999994
 40
0.4999999999999994
 40
0.4999999999999994
 40
0.5156249999999994
 40
0.5156249999999994
 40
0.5312499999999993
 40
0.5312499999999993
 40
0.5390624999999993
 40
0.5390624999999993
 40
0.5468749999999993
 40
0.5468749999999993
 40
0.5624999999999993
 40
0.5624999999999993
 40
0.5703124999999993
 40
0.5703124999999993
 40
0.5781249999999993
 40
0.5781249999999993
 40
0.5937499999999992
 40
0.5937499999999992
 40
0.6249999999999992
 40
0.6249999999999992
 40
0.6406249999999992
 40
0.6406249999999992
 40
0.6562499999999991
 40
0.6562499999999991
 40
0.6874999999999992
 40
0.6874999999999992
 40
0.7031249999999993
 40
0.7031249999999993
 40
0.7187499999999993
 40
0.7187499999999993
 40
0.7499999999999994
 40
0.7499999999999994
 40
0.7812499999999994
 40
0.7812499999999994
 40
0.7968749999999996
 40
0.7968749999999996
 40
0.8124999999999997
 40
0.8124999999999997
 40
0.8437499999999997
 40
0.8437499999999997
 40
0.8593749999999997
 40
0.8593749999999997
 40
0.8749999999999997
 40
0.8749999999999997
 40
0.9062499999999996
 40
0.9062499999999996
 40
0.9140624999999996
 40
0.9140624999999996
 40
0.9218749999999996
 40
0.9218749999999996
 40
0.9374999999999997
 40
0.9374999999999997
 40
0.9531249999999998
 40
0.9531249999999998
 40
0.9609374999999999
 40
0.9609374999999999
 40
0.9687499999999999
 40
0.9687499999999999
 40
0.984375
 40
0.984375
 40
0.9921875
 40
0.9921875
 40
1.0
 40
1.0
 40
1.0
 40
1.0
 10
563.5211203655078
 20
727.0492641409896
 30
0.0
 10
572.1770145372745
 20
727.0492646489698
 30
0.0
 10
580.8318044268877
 20
727.8041706779046
 30
0.0
 10
597.7194821846199
 20
730.7110151877455
 30
0.0
 10
605.9960398765464
 20
732.8579059631392
 30
0.0
 10
618.1730379956418
 20
737.0642096012933
 30
0.0
 10
622.2082459570227
 20
738.638283792913
 30
0.0
 10
630.1122303944182
 20
742.0730189524792
 30
0.0
 10
633.9768939339509
 20
743.9299155282429
 30
0.0
 10
645.3275776387122
 20
749.8893477280627
 30
0.0
 10
652.5710189803564
 20
754.3794625177098
 30
0.0
 10
663.0013343245522
 20
761.8094088698242
 30
0.0
 10
666.4053009407902
 20
764.4023817528994
 30
0.0
 10
673.0732181301737
 20
769.8120374793763
 30
0.0
 10
676.3463566500161
 20
772.6376438667155
 30
0.0
 10
685.8561583180511
 20
781.3399093961168
 30
0.0
 10
691.8089481623192
 20
787.456498022271
 30
0.0
 10
708.6594181993049
 20
806.6266858218045
 30
0.0
 10
718.5584346563065
 20
820.4931890334137
 30
0.0
 10
731.7152865445508
 20
842.669952525729
 30
0.0
 10
735.7695783592696
 20
850.2162445311594
 30
0.0
 10
743.2472274056834
 20
865.5177456488335
 30
0.0
 10
746.6764807322637
 20
873.284799449265
 30
0.0
 10
756.1151069984205
 20
896.9049741273215
 30
0.0
 10
761.2817804401451
 20
913.0746903565076
 30
0.0
 10
767.4832056578068
 20
937.911060192435
 30
0.0
 10
769.294879548627
 20
946.3101028255279
 30
0.0
 10
772.3807532828278
 20
963.1537769858247
 30
0.0
 10
773.6574756696253
 20
971.6026031287137
 30
0.0
 10
776.7150369429802
 20
997.0274101050506
 30
0.0
 10
777.7329022016102
 20
1014.080742921776
 30
0.0
 10
777.736417004224
 20
1048.393444677086
 30
0.0
 10
776.7190131198648
 20
1065.519967175233
 30
0.0
 10
773.6459457501854
 20
1091.046556439464
 30
0.0
 10
772.3596939780438
 20
1099.534039404182
 30
0.0
 10
769.2828022924529
 20
1116.307565881151
 30
0.0
 10
767.4905197519785
 20
1124.6134886134
 30
0.0
 10
761.3368882365678
 20
1149.283872274166
 30
0.0
 10
756.2031570262894
 20
1165.40235060306
 30
0.0
 10
746.7814047605922
 20
1189.031931791548
 30
0.0
 10
743.3523057266058
 20
1196.816575360829
 30
0.0
 10
735.85571425795
 20
1212.182553761344
 30
0.0
 10
731.7722521226699
 20
1219.787733814956
 30
0.0
 10
718.682810629879
 20
1241.876614297037
 30
0.0
 10
708.80601205026
 20
1255.752109557892
 30
0.0
 10
694.7135324605138
 20
1271.805522660386
 30
0.0
 10
691.8065908847315
 20
1274.950828436743
 30
0.0
 10
685.8026630930894
 20
1281.100963655549
 30
0.0
 10
682.7002993032695
 20
1284.109726150313
 30
0.0
 10
673.1994117716323
 20
1292.805641763529
 30
0.0
 10
666.5771349236277
 20
1298.198325610652
 30
0.0
 10
652.701057020184
 20
1308.09758681207
 30
0.0
 10
645.4480166530369
 20
1312.605231503115
 30
0.0
 10
634.0277340100711
 20
1318.607998536949
 30
0.0
 10
630.1191351683347
 20
1320.485849771986
 30
0.0
 10
622.234348534932
 20
1323.91323003685
 30
0.0
 10
618.2455958703496
 20
1325.470273557165
 30
0.0
 10
606.1372288602149
 20
1329.661223018346
 30
0.0
 10
597.875997243617
 20
1331.816609393062
 30
0.0
 10
585.1776272366844
 20
1334.013962157225
 30
0.0
 10
580.8793610975919
 20
1334.573891611381
 30
0.0
 10
572.265606792001
 20
1335.321063783706
 30
0.0
 10
567.9478264844009
 20
1335.510254111822
 30
0.0
 10
554.961424656461
 20
1335.518696328719
 30
0.0
 10
546.3031592541845
 20
1334.76899996998
 30
0.0
 10
529.4091256163309
 20
1331.87132059484
 30
0.0
 10
521.1295128338453
 20
1329.728503118032
 30
0.0
 10
508.9480697902403
 20
1325.527738545089
 30
0.0
 10
504.9114817567979
 20
1323.95547483613
 30
0.0
 10
497.0034064956421
 20
1320.523490264468
 30
0.0
 10
493.1367843452564
 20
1318.667830296638
 30
0.0
 10
481.7804368142402
 20
1312.71176918837
 30
0.0
 10
474.5335004323691
 20
1308.223453075892
 30
0.0
 10
464.0982539797423
 20
1300.795707118611
 30
0.0
 10
460.6926950260234
 20
1298.203385631772
 30
0.0
 10
454.0216869864165
 20
1292.79488278977
 30
0.0
 10
450.7469431004504
 20
1289.969701203004
 30
0.0
 10
441.231872752429
 20
1281.267849306261
 30
0.0
 10
435.2759161558567
 20
1275.151255038037
 30
0.0
 10
418.4166921473804
 20
1255.980442840365
 30
0.0
 10
408.5128227443475
 20
1242.112723182148
 30
0.0
 10
395.3496395093085
 20
1219.933363296911
 30
0.0
 10
391.2930600204154
 20
1212.38541009888
 30
0.0
 10
383.8116015033537
 20
1197.081072141347
 30
0.0
 10
380.3806392538493
 20
1189.312526357139
 30
0.0
 10
370.9373777395473
 20
1165.687691066889
 30
0.0
 10
365.7682461105049
 20
1149.514630334552
 30
0.0
 10
359.5638894593761
 20
1124.672959779399
 30
0.0
 10
357.7513593496168
 20
1116.272081330235
 30
0.0
 10
354.6640038460403
 20
1099.424514252702
 30
0.0
 10
353.3866732774295
 20
1090.973728197848
 30
0.0
 10
350.3276622179833
 20
1065.543003492291
 30
0.0
 10
349.309321722292
 20
1048.485675715577
 30
0.0
 10
349.3058051797674
 20
1014.164887852919
 30
0.0
 10
350.3236841628928
 20
997.0343462350352
 30
0.0
 10
353.3982110150044
 20
971.5018031732947
 30
0.0
 10
354.6850681548474
 20
963.0124099671126
 30
0.0
 10
357.7634042996831
 20
946.2351597029466
 30
0.0
 10
359.5565293032889
 20
937.9274133680534
 30
0.0
 10
365.7130788091189
 20
913.2516832941053
 30
0.0
 10
370.849267510998
 20
897.1298037979581
 30
0.0
 10
380.2756970161134
 20
873.4954364617769
 30
0.0
 10
383.7065262722431
 20
865.7092520137968
 30
0.0
 10
391.2069949734304
 20
850.3403245878129
 30
0.0
 10
395.2925178127371
 20
842.7339207016156
 30
0.0
 10
408.3883429514495
 20
820.6422732230832
 30
0.0
 10
418.2700643366585
 20
806.7654263587181
 30
0.0
 10
432.3700411737627
 20
790.7113170099566
 30
0.0
 10
435.2785507494723
 20
787.5659226552243
 30
0.0
 10
441.2857779066064
 20
781.4157310356953
 30
0.0
 10
444.3896817285196
 20
778.4071986806533
 30
0.0
 10
453.895061389322
 20
769.712395191662
 30
0.0
 10
460.5205199945597
 20
764.3207151512397
 30
0.0
 10
474.4034531872886
 20
754.4241515838753
 30
0.0
 10
481.6601663358866
 20
749.9181996672858
 30
0.0
 10
493.086470890252
 20
743.9186912320922
 30
0.0
 10
496.9968182187155
 20
742.0422343259996
 30
0.0
 10
504.8846441447039
 20
738.6180374150382
 30
0.0
 10
508.8749429554254
 20
737.0626751137986
 30
0.0
 10
520.9880414353136
 20
732.8770836562018
 30
0.0
 10
529.2525513048182
 20
730.7256880694484
 30
0.0
 10
541.956091230171
 20
728.5351747977737
 30
0.0
 10
546.256069687774
 20
727.977705520401
 30
0.0
 10
554.8721729749141
 20
727.2357530378708
 30
0.0
 10
559.1931732796244
 20
727.0492638869994
 30
0.0
 10
563.5211203655078
 20
727.0492641409896
 30
0.0
  0
SPLINE
  5
41
330
1F
100
AcDbEntity
  8
NECK
  6
Continuous
 62
     7
100
AcDbSpline
210
0.0
220
0.0
230
1.0
 70
    11
 71
     3
 72
   126
 73
   122
 74
     0
 42
0.000000000005951
 43
0.0000000001
 40
0.0
 40
0.0
 40
0.0
 40
0.0
 40
0.03125
 40
0.03125
 40
0.0625000000000001
 40
0.0625000000000001
 40
0.0781250000000001
 40
0.0781250000000001
 40
0.0937500000000001
 40
0.0937500000000001
 40
0.1250000000000001
 40
0.1250000000000001
 40
0.1406250000000001
 40
0.1406250000000001
 40
0.1484375000000002
 40
0.1484375000000002
 40
0.1562500000000002
 40
0.1562500000000002
 40
0.1875000000000002
 40
0.1875000000000002
 40
0.1953125000000001
 40
0.1953125000000001
 40
0.2031250000000001
 40
0.2031250000000001
 40
0.2187500000000001
 40
0.2187500000000001
 40
0.2265625000000001
 40
0.2265625000000001
 40
0.2343750000000001
 40
0.2343750000000001
 40
0.2500000000000001
 40
0.2500000000000001
 40
0.2812499999999999
 40
0.2812499999999999
 40
0.2890624999999999
 40
0.2890624999999999
 40
0.2968749999999999
 40
0.2968749999999999
 40
0.3124999999999998
 40
0.3124999999999998
 40
0.3203124999999998
 40
0.3203124999999998
 40
0.3281249999999998
 40
0.3281249999999998
 40
0.3437499999999997
 40
0.3437499999999997
 40
0.3593749999999997
 40
0.3593749999999997
 40
0.3671874999999996
 40
0.3671874999999996
 40
0.3749999999999996
 40
0.3749999999999996
 40
0.4062499999999994
 40
0.4062499999999994
 40
0.4218749999999993
 40
0.4218749999999993
 40
0.4374999999999992
 40
0.4374999999999992
 40
0.468749999999999
 40
0.468749999999999
 40
0.4999999999999988
 40
0.4999999999999988
 40
0.5312499999999987
 40
0.5312499999999987
 40
0.5624999999999984
 40
0.5624999999999984
 40
0.5781249999999984
 40
0.5781249999999984
 40
0.5937499999999983
 40
0.5937499999999983
 40
0.6249999999999982
 40
0.6249999999999982
 40
0.6406249999999982
 40
0.6406249999999982
 40
0.6484374999999982
 40
0.6484374999999982
 40
0.6562499999999982
 40
0.6562499999999982
 40
0.6874999999999982
 40
0.6874999999999982
 40
0.6953124999999983
 40
0.6953124999999983
 40
0.7031249999999983
 40
0.7031249999999983
 40
0.7187499999999983
 40
0.7187499999999983
 40
0.7265624999999983
 40
0.7265624999999983
 40
0.7343749999999983
 40
0.7343749999999983
 40
0.7499999999999983
 40
0.7499999999999983
 40
0.7812499999999983
 40
0.7812499999999983
 40
0.7890624999999983
 40
0.7890624999999983
 40
0.7968749999999983
 40
0.7968749999999983
 40
0.8124999999999984
 40
0.8124999999999984
 40
0.8203124999999987
 40
0.8203124999999987
 40
0.8281249999999988
 40
0.8281249999999988
 40
0.8437499999999989
 40
0.8437499999999989
 40
0.859374999999999
 40
0.859374999999999
 40
0.8671874999999991
 40
0.8671874999999991
 40
0.8749999999999992
 40
0.8749999999999992
 40
0.9062499999999994
 40
0.9062499999999994
 40
0.9218749999999996
 40
0.9218749999999996
 40
0.9374999999999997
 40
0.9374999999999997
 40
0.9687499999999999
 40
0.9687499999999999
 40
1.0
 40
1.0
 40
1.0
 40
1.0
 10
784.2629885353434
 20
1031.281186325279
 30
0.0
 10
784.2629883574497
 20
1048.858073017836
 30
0.0
 10
783.1703775718495
 20
1066.249764754411
 30
0.0
 10
778.8795861964815
 20
1100.67625904449
 30
0.0
 10
775.6777097353137
 20
1117.710435156389
 30
0.0
 10
769.2060059653624
 20
1142.978826508255
 30
0.0
 10
766.7684110228358
 20
1151.354103198062
 30
0.0
 10
761.2935966259856
 20
1168.00302161799
 30
0.0
 10
758.2524221661946
 20
1176.280661526821
 30
0.0
 10
748.3207920839457
 20
1200.569248334008
 30
0.0
 10
740.5918626704674
 20
1216.167062717725
 30
0.0
 10
727.1065785076147
 20
1238.548410923494
 30
0.0
 10
722.2942444677236
 20
1245.838598656372
 30
0.0
 10
714.5422378978885
 20
1256.487548980991
 30
0.0
 10
711.8619595174263
 20
1259.997872606208
 30
0.0
 10
706.3553237316468
 20
1266.860574037381
 30
0.0
 10
703.528318568678
 20
1270.214863474004
 30
0.0
 10
689.0109752654631
 20
1286.586487531738
 30
0.0
 10
676.1986416633175
 20
1298.430452516654
 30
0.0
 10
658.2679902061482
 20
1311.23247911804
 30
0.0
 10
654.5817343739509
 20
1313.691154604077
 30
0.0
 10
647.1075104311182
 20
1318.321884368169
 30
0.0
 10
643.3072262456559
 20
1320.503061458606
 30
0.0
 10
631.709450458137
 20
1326.628296586569
 30
0.0
 10
623.716156937819
 20
1330.156440326946
 30
0.0
 10
611.287009273552
 20
1334.515709866532
 30
0.0
 10
607.0574005025951
 20
1335.816189608434
 30
0.0
 10
598.5003305646022
 20
1338.064504754729
 30
0.0
 10
594.1968346845274
 20
1339.007330285677
 30
0.0
 10
581.2104313033094
 20
1341.284306322061
 30
0.0
 10
572.451895465505
 20
1342.069044160149
 30
0.0
 10
545.8538018555837
 20
1342.080512160151
 30
0.0
 10
528.6793625421855
 20
1339.001903742409
 30
0.0
 10
507.834938637293
 20
1331.748829879197
 30
0.0
 10
503.7104272895801
 20
1330.128214074172
 30
0.0
 10
495.6539303251903
 20
1326.609241546586
 30
0.0
 10
491.705464442023
 20
1324.705423849132
 30
0.0
 10
480.084150734964
 20
1318.588589670321
 30
0.0
 10
472.6347575083951
 20
1313.97133062501
 30
0.0
 10
461.8674835248717
 20
1306.309488146089
 30
0.0
 10
458.3417184593214
 20
1303.627407951239
 30
0.0
 10
451.5061525399604
 20
1298.096748993663
 30
0.0
 10
448.1850050709299
 20
1295.240754029595
 30
0.0
 10
438.4904003896202
 20
1286.420539830065
 30
0.0
 10
432.384820208038
 20
1280.204992631965
 30
0.0
 10
420.8089564897069
 20
1267.177849328541
 30
0.0
 10
415.3393212360104
 20
1260.365644990186
 30
0.0
 10
407.5758398909617
 20
1249.733609551472
 30
0.0
 10
405.0560646843581
 20
1246.111482028363
 30
0.0
 10
400.1935834705159
 20
1238.784200046773
 30
0.0
 10
397.8507990122661
 20
1235.080102661714
 30
0.0
 10
386.5533421993256
 20
1216.369140661019
 30
0.0
 10
378.833647548977
 20
1200.797445384486
 30
0.0
 10
368.9394656687904
 20
1176.669084459652
 30
0.0
 10
365.9245934207848
 20
1168.496778159338
 30
0.0
 10
360.4412885969194
 20
1151.902245353614
 30
0.0
 10
357.9669994323024
 20
1143.451622224912
 30
0.0
 10
351.4144635070958
 20
1117.97850103894
 30
0.0
 10
348.1872246548551
 20
1100.841152256428
 30
0.0
 10
343.8710391684832
 20
1066.275504751731
 30
0.0
 10
342.7788137342257
 20
1048.847523642458
 30
0.0
 10
342.7796555414275
 20
1013.694730457745
 30
0.0
 10
343.8726153895946
 20
996.3035166746349
 30
0.0
 10
348.1640139826907
 20
961.8779628828929
 30
0.0
 10
351.3661453294425
 20
944.8442487616792
 30
0.0
 10
357.8381766557039
 20
919.5765411121045
 30
0.0
 10
360.2758723246331
 20
911.2014908892737
 30
0.0
 10
365.7508708108197
 20
894.553022460232
 30
0.0
 10
368.7921128157148
 20
886.2756513189971
 30
0.0
 10
378.7239060701972
 20
861.987857787375
 30
0.0
 10
386.4529018917816
 20
846.390549512329
 30
0.0
 10
399.9382293669319
 20
824.0099302535517
 30
0.0
 10
404.7505683346013
 20
816.7199803991928
 30
0.0
 10
412.5025689164359
 20
806.0713797115136
 30
0.0
 10
415.1828418239913
 20
802.5611736569133
 30
0.0
 10
420.6894377834597
 20
795.6987312960581
 30
0.0
 10
423.5164202781436
 20
792.3445685133119
 30
0.0
 10
438.0336363950476
 20
775.9735632461435
 30
0.0
 10
450.8458248772573
 20
764.1300479369188
 30
0.0
 10
468.7762351678043
 20
751.3285209268319
 30
0.0
 10
472.4624263973128
 20
748.8699511904715
 30
0.0
 10
479.9365144194358
 20
744.2394213144659
 30
0.0
 10
483.7367280110314
 20
742.0583385740758
 30
0.0
 10
495.3342838128457
 20
735.9333690694353
 30
0.0
 10
503.3274199459722
 20
732.4053796189365
 30
0.0
 10
515.7563135239969
 20
728.046303267728
 30
0.0
 10
519.9858382685104
 20
726.7458807822952
 30
0.0
 10
528.542711469732
 20
724.4976711074316
 30
0.0
 10
532.8461078045297
 20
723.5548897625073
 30
0.0
 10
545.832209013459
 20
721.2780205931009
 30
0.0
 10
554.5905387101559
 20
720.4933199073205
 30
0.0
 10
581.187998589034
 20
720.4818521591651
 30
0.0
 10
598.3620417135149
 20
723.5603158670975
 30
0.0
 10
619.2059990494316
 20
730.8130519273368
 30
0.0
 10
623.33043292442
 20
732.4335975820051
 30
0.0
 10
631.386776019846
 20
735.95241736699
 30
0.0
 10
635.3351680614666
 20
737.8561530978415
 30
0.0
 10
646.9562690612777
 20
743.9727254256609
 30
0.0
 10
654.4055321890016
 20
748.5897887268236
 30
0.0
 10
665.172627545587
 20
756.2513077014605
 30
0.0
 10
668.6983457282294
 20
758.9332820297626
 30
0.0
 10
675.5338318185143
 20
764.4637313076712
 30
0.0
 10
678.8549422502712
 20
767.3196187323949
 30
0.0
 10
688.5494442857323
 20
776.1395023709352
 30
0.0
 10
694.654967063473
 20
782.3548188495338
 30
0.0
 10
706.2307376148862
 20
795.3814804101249
 30
0.0
 10
711.7003369346742
 20
802.193433885428
 30
0.0
 10
719.463781021521
 20
812.8250774150624
 30
0.0
 10
721.9835461749972
 20
816.4470702260763
 30
0.0
 10
726.8460381530188
 20
823.774119717175
 30
0.0
 10
729.1888301179938
 20
827.4780998852636
 30
0.0
 10
740.4863357008098
 20
846.1884706620829
 30
0.0
 10
748.206104505417
 20
861.7596768886
 30
0.0
 10
758.1004566508426
 20
885.887277238627
 30
0.0
 10
761.1153955814793
 20
894.0593254735301
 30
0.0
 10
766.5988570133786
 20
910.6533315180949
 30
0.0
 10
769.0732373409024
 20
919.1036834544564
 30
0.0
 10
775.6261114405652
 20
944.5761304589244
 30
0.0
 10
778.853610796632
 20
961.7130250174
 30
0.0
 10
783.1704116837998
 20
996.2777512302788
 30
0.0
 10
784.2629887132371
 20
1013.704299632722
 30
0.0
 10
784.2629885353434
 20
1031.281186325279
 30
0.0
  0
SPLINE
  5
42
330
1F
100
AcDbEntity
  8
NECK
  6
Continuous
 62
     7
100
AcDbSpline
210
0.0
220
0.0
230
1.0
 70
    11
 71
     3
 72
    70
 73
    66
 74
     0
 42
0.0000000000478467
 43
0.0000000001
 40
0.0
 40
0.0
 40
0.0
 40
0.0
 40
0.03125
 40
0.03125
 40
0.0625
 40
0.0625
 40
0.09375
 40
0.09375
 40
0.125
 40
0.125
 40
0.15625
 40
0.15625
 40
0.1875
 40
0.1875
 40
0.21875
 40
0.21875
 40
0.25
 40
0.25
 40
0.28125
 40
0.28125
 40
0.3125
 40
0.3125
 40
0.34375
 40
0.34375
 40
0.375
 40
0.375
 40
0.4062500000000001
 40
0.4062500000000001
 40
0.4375000000000001
 40
0.4375000000000001
 40
0.4687500000000001
 40
0.4687500000000001
 40
0.5
 40
0.5
 40
0.53125
 40
0.53125
 40
0.5625
 40
0.5625
 40
0.59375
 40
0.59375
 40
0.625
 40
0.625
 40
0.65625
 40
0.65625
 40
0.6875
 40
0.6875
 40
0.71875
 40
0.71875
 40
0.75
 40
0.75
 40
0.7812500000000001
 40
0.7812500000000001
 40
0.8125000000000001
 40
0.8125000000000001
 40
0.8437500000000001
 40
0.8437500000000001
 40
0.8750000000000001
 40
0.8750000000000001
 40
0.9062500000000001
 40
0.9062500000000001
 40
0.9375000000000001
 40
0.9375000000000001
 40
0.9687500000000001
 40
0.9687500000000001
 40
1.0
 40
1.0
 40
1.0
 40
1.0
 10
563.5211115263878
 20
996.790271024053
 30
0.0
 10
561.3235186227885
 20
996.790271024053
 30
0.0
 10
559.1702315507031
 20
997.0401277380857
 30
0.0
 10
554.9441970259898
 20
997.9956277877806
 30
0.0
 10
552.8513690048841
 20
998.7149718324703
 30
0.0
 10
548.9183262643146
 20
1000.549802228104
 30
0.0
 10
547.0614296125511
 20
1001.664502541544
 30
0.0
 10
543.5634154944031
 20
1004.283425296781
 30
0.0
 10
541.9589529390452
 20
1005.763477065009
 30
0.0
 10
539.0760997431207
 20
1008.991656742151
 30
0.0
 10
537.7772869975831
 20
1010.76646609223
 30
0.0
 10
535.5505600613938
 20
1014.505513813557
 30
0.0
 10
534.6223067622859
 20
1016.46032347234
 30
0.0
 10
533.1210106581707
 20
1020.5339457647
 30
0.0
 10
532.5489951179709
 20
1022.664546945908
 30
0.0
 10
531.7974676278337
 20
1026.945422456807
 30
0.0
 10
531.6099980045886
 20
1029.112181350484
 30
0.0
 10
531.6126543687218
 20
1033.496098484652
 30
0.0
 10
531.802703946976
 20
1035.656244966
 30
0.0
 10
532.5535391364677
 20
1039.914105209046
 30
0.0
 10
533.1187769322078
 20
1042.023885818536
 30
0.0
 10
534.6305592584522
 20
1046.122903545856
 30
0.0
 10
535.5608874761754
 20
1048.074514582325
 30
0.0
 10
537.7696634974463
 20
1051.7827769998
 30
0.0
 10
539.0634781456332
 20
1053.555944453093
 30
0.0
 10
541.9630092706617
 20
1056.804057676628
 30
0.0
 10
543.5506390715617
 20
1058.265772506026
 30
0.0
 10
547.0062679776698
 20
1060.860092167842
 30
0.0
 10
548.9000886719775
 20
1062.002365530993
 30
0.0
 10
552.8301385325965
 20
1063.839157311837
 30
0.0
 10
554.8714549727982
 20
1064.545290778933
 30
0.0
 10
559.1138730123661
 20
1065.514341604134
 30
0.0
 10
561.3115801813425
 20
1065.771202673323
 30
0.0
 10
565.7075805607594
 20
1065.772978921933
 30
0.0
 10
567.8617023095645
 20
1065.523824276821
 30
0.0
 10
572.0889111176019
 20
1064.56953235596
 30
0.0
 10
574.1823934432008
 20
1063.850679246905
 30
0.0
 10
578.1168774042674
 20
1062.01649407755
 30
0.0
 10
579.9744360211221
 20
1060.902011590147
 30
0.0
 10
583.4736915693867
 20
1058.283376886211
 30
0.0
 10
585.0789024204598
 20
1056.803224702005
 30
0.0
 10
587.9629259239989
 20
1053.574839616232
 30
0.0
 10
589.2622560329547
 20
1051.799873072885
 30
0.0
 10
591.4899601502049
 20
1048.060233853924
 30
0.0
 10
592.41861035358
 20
1046.105086361886
 30
0.0
 10
593.9205480565175
 20
1042.030718202394
 30
0.0
 10
594.4928160284303
 20
1039.899678697147
 30
0.0
 10
595.2446739669474
 20
1035.617890203085
 30
0.0
 10
595.432225266576
 20
1033.450663258639
 30
0.0
 10
595.429568467188
 20
1029.065787722835
 30
0.0
 10
595.2394367970751
 20
1026.905175842874
 30
0.0
 10
594.4882741772363
 20
1022.64641227673
 30
0.0
 10
593.9227739480351
 20
1020.536153063333
 30
0.0
 10
592.4103536692389
 20
1016.436411770557
 30
0.0
 10
591.4796348898079
 20
1014.48447908003
 30
0.0
 10
589.2699152701831
 20
1010.775663983006
 30
0.0
 10
587.9755024183148
 20
1009.002229097141
 30
0.0
 10
585.0748508262925
 20
1005.753978769343
 30
0.0
 10
583.4866058095702
 20
1004.292259705595
 30
0.0
 10
580.0296025821799
 20
1001.698099358419
 30
0.0
 10
578.1350348102941
 20
1000.556023654937
 30
0.0
 10
574.2037207349363
 20
998.7199572679718
 30
0.0
 10
572.1617418601597
 20
998.0142700717845
 30
0.0
 10
567.9179012389484
 20
997.0463807849333
 30
0.0
 10
565.718704429987
 20
996.790271024053
 30
0.0
 10
563.5211115263878
 20
996.790271024053
 30
0.0
  0
CIRCLE
  5
43
330
1F
100
AcDbEntity
  8
NECK
  6
Continuous
 62
     7
100
AcDbCircle
 10
563.5211115264
 20
1031.2811820757
 30
0.0
 40
25.0
  0
SPLINE
  5
44
330
1F
100
AcDbEntity
  8
NECK
  6
Continuous
 62
     7
100
AcDbSpline
210
0.0
220
0.0
230
1.0
 70
    11
 71
     3
 72
    93
 73
    89
 74
     0
 42
0.000000000005822
 43
0.0000000001
 40
0.0
 40
0.0
 40
0.0
 40
0.0
 40
0.0070158508454129
 40
0.016405843739095
 40
0.0260620700404046
 40
0.036043973743134
 40
0.0463985751603632
 40
0.0571557407463791
 40
0.0683204810105424
 40
0.0799563001521776
 40
0.0919250397823102
 40
0.1042716295948077
 40
0.1170402302765331
 40
0.1302620523155844
 40
0.1438325431718747
 40
0.1576137116655689
 40
0.1716173065975677
 40
0.1858392126499691
 40
0.2002308568259721
 40
0.214683499012128
 40
0.2291998324124838
 40
0.2436628911814117
 40
0.2580104090046115
 40
0.2723261329363806
 40
0.286474208918531
 40
0.3003730077801869
 40
0.3139641182396708
 40
0.3272743916358162
 40
0.3401998740497127
 40
0.3526964411622556
 40
0.3647579179702741
 40
0.37640774927743
 40
0.3876077890964881
 40
0.3984249660800688
 40
0.4088458876735288
 40
0.4188797773427377
 40
0.4285627039116332
 40
0.4379469629031932
 40
0.4470717227913146
 40
0.4560000881267153
 40
0.4648251867718926
 40
0.4735976833692664
 40
0.4823206456743968
 40
0.4911997077405189
 40
0.500218350905211
 40
0.5093894600301451
 40
0.5188385690017887
 40
0.5285969932075936
 40
0.5387074652700499
 40
0.5491948171827323
 40
0.5600604057295415
 40
0.5712946043572223
 40
0.5830173072185854
 40
0.5950785200601996
 40
0.6075297832481773
 40
0.6204127222225769
 40
0.6337503408201974
 40
0.6473695993648599
 40
0.6612077446859744
 40
0.675268192458786
 40
0.6895468873784243
 40
0.7039398562738141
 40
0.7184185560908758
 40
0.732933433804193
 40
0.747363150350137
 40
0.7616982011878004
 40
0.7759820337957261
 40
0.7900736267216996
 40
0.803899457788392
 40
0.8174200993392658
 40
0.8306457718724009
 40
0.8434568602571282
 40
0.8558342889384877
 40
0.8677861046948713
 40
0.879347263570173
 40
0.8904539223967258
 40
0.9011641361945961
 40
0.9114726875045391
 40
0.921404811586496
 40
0.9310082123747406
 40
0.9403424502837903
 40
0.9492012926914677
 40
0.9580753441629525
 40
0.966970722019283
 40
0.9758847910059907
 40
0.9848133894857106
 40
0.9937529341187697
 40
1.0
 40
1.0
 40
1.0
 40
1.0
 10
508.5412240580083
 20
1338.339860565179
 30
0.0
 10
504.3935566562164
 20
1336.82712998124
 30
0.0
 10
496.268473940568
 20
1333.622494642273
 30
0.0
 10
482.5100596122379
 20
1326.910843114908
 30
0.0
 10
468.4225858906303
 20
1318.441410725068
 30
0.0
 10
454.3724583904649
 20
1308.401317140391
 30
0.0
 10
440.804970046192
 20
1296.946847438231
 30
0.0
 10
427.5902332352007
 20
1283.992279245693
 30
0.0
 10
414.9038377988036
 20
1269.580553583132
 30
0.0
 10
402.8099733743886
 20
1253.761462015583
 30
0.0
 10
391.4671302069489
 20
1236.591214028848
 30
0.0
 10
380.9595249422375
 20
1218.142480006947
 30
0.0
 10
371.3459450503793
 20
1198.415261514938
 30
0.0
 10
362.6930403343171
 20
1177.487264915737
 30
0.0
 10
355.1305427699556
 20
1155.528095665916
 30
0.0
 10
348.7771471115385
 20
1132.723856774594
 30
0.0
 10
343.7015064719739
 20
1109.220992682635
 30
0.0
 10
339.9396547449915
 20
1085.118560423592
 30
0.0
 10
337.5501800607591
 20
1060.583546130259
 30
0.0
 10
336.5818898084452
 20
1035.782614795474
 30
0.0
 10
337.0361918858626
 20
1010.926568513648
 30
0.0
 10
338.9187794489238
 20
986.1974085843226
 30
0.0
 10
342.2283952097407
 20
961.73454971628
 30
0.0
 10
346.9290364431335
 20
937.683867309576
 30
0.0
 10
352.9814879308562
 20
914.202227312296
 30
0.0
 10
360.311436163024
 20
891.5223499475754
 30
0.0
 10
368.8524581654235
 20
869.784233873228
 30
0.0
 10
378.5192057042714
 20
849.1354060238847
 30
0.0
 10
389.2130819244062
 20
829.7109941991928
 30
0.0
 10
400.8096129178697
 20
811.6542219226257
 30
0.0
 10
413.208044454211
 20
795.0404309698291
 30
0.0
 10
426.2915809524051
 20
779.9277317556162
 30
0.0
 10
439.9825291599452
 20
766.3557398078235
 30
0.0
 10
454.1589046651878
 20
754.3529132171503
 30
0.0
 10
468.7212412585091
 20
743.9287268450981
 30
0.0
 10
483.5553977737624
 20
735.104593431205
 30
0.0
 10
498.5715572224406
 20
727.8698106957053
 30
0.0
 10
513.6953700257075
 20
722.2103797284998
 30
0.0
 10
528.8591820259277
 20
718.0787178887123
 30
0.0
 10
544.0304914559675
 20
715.4513286334974
 30
0.0
 10
559.1829388964252
 20
714.3058421915433
 30
0.0
 10
574.2578444404795
 20
714.6194774872536
 30
0.0
 10
589.2628508619069
 20
716.3815787307033
 30
0.0
 10
604.1782929991034
 20
719.5494769270937
 30
0.0
 10
618.9854249801868
 20
724.1480340124978
 30
0.0
 10
633.62074980494
 20
730.1809239568016
 30
0.0
 10
648.05620232537
 20
737.6481837771861
 30
0.0
 10
662.2699191903154
 20
746.5847742762148
 30
0.0
 10
676.1912273187829
 20
756.9941521388423
 30
0.0
 10
689.7390973277317
 20
768.8696642249391
 30
0.0
 10
702.8073764759465
 20
782.1868562765573
 30
0.0
 10
715.3374241005675
 20
796.950786771375
 30
0.0
 10
727.2263540017475
 20
813.0931968649147
 30
0.0
 10
738.3610629426869
 20
830.5960081056239
 30
0.0
 10
748.6429505054329
 20
849.3727774009508
 30
0.0
 10
758.0198864579625
 20
869.4260616038075
 30
0.0
 10
766.4051379514415
 20
890.6339357040924
 30
0.0
 10
773.6649743984336
 20
912.8286814687158
 30
0.0
 10
779.6940590565895
 20
935.8167971119011
 30
0.0
 10
784.4348030446207
 20
959.4890508330591
 30
0.0
 10
787.8505882292146
 20
983.7093862305508
 30
0.0
 10
789.875313227748
 20
1008.325624793772
 30
0.0
 10
790.479131888142
 20
1033.152735313689
 30
0.0
 10
789.6590370008573
 20
1057.994588075165
 30
0.0
 10
787.4105987879685
 20
1082.66595226248
 30
0.0
 10
783.7405875065722
 20
1107.032474743555
 30
0.0
 10
778.6910843208369
 20
1130.953321141712
 30
0.0
 10
772.303254884745
 20
1154.250426911004
 30
0.0
 10
764.655477623512
 20
1176.704336903347
 30
0.0
 10
755.8148373140599
 20
1198.181472287851
 30
0.0
 10
745.8771780258791
 20
1218.52987485131
 30
0.0
 10
734.9436353128198
 20
1237.611193681276
 30
0.0
 10
723.1369210883275
 20
1255.295678271933
 30
0.0
 10
710.5467055059742
 20
1271.535612957726
 30
0.0
 10
697.2876440449767
 20
1286.271072324594
 30
0.0
 10
683.4502320008526
 20
1299.455029135029
 30
0.0
 10
669.1696983812412
 20
1311.052891621906
 30
0.0
 10
654.5390354471208
 20
1321.057899094173
 30
0.0
 10
639.6558403390053
 20
1329.466305455423
 30
0.0
 10
624.598914474826
 20
1336.293846915593
 30
0.0
 10
609.554298192866
 20
1341.525051693641
 30
0.0
 10
594.4963598647608
 20
1345.181073446204
 30
0.0
 10
579.380183917835
 20
1347.364842354126
 30
0.0
 10
564.1549889290158
 20
1348.145444764943
 30
0.0
 10
548.7755403295258
 20
1347.456570624832
 30
0.0
 10
533.7325159965503
 20
1345.403291480663
 30
0.0
 10
519.970873194583
 20
1342.142369044008
 30
0.0
 10
512.2483591027085
 20
1339.648109010408
 30
0.0
 10
508.5412240580083
 20
1338.339860565179
 30
0.0
  0
INSERT
  5
46
330
1F
100
AcDbEntity
  8
Default
100
AcDbBlockReference
  2
SE
 10
0.0
 20
0.0
 30
0.0
  0
TEXT
  5
62
330
1F
100
AcDbEntity
  8
0
  6
Continuous
 62
     7
100
AcDbText
 10
1291.9101135833
 20
491.9175538211
 30
0.0
 40
42.0
  1
SEZIONE A-A
  7
SEACAD_seiso_ttf
 11
1291.9101135833
 21
533.9175538211
 31
0.0
100
AcDbText
 73
     3
  0
SPLINE
  5
63
330
1F
100
AcDbEntity
  8
NECK
  6
Continuous
 62
     7
100
AcDbSpline
210
0.0
220
0.0
230
1.0
 70
     8
 71
     3
 72
    12
 73
     8
 74
     0
 42
0.0000000006482762
 43
0.0000000001
 40
0.0
 40
0.0
 40
0.0
 40
0.0
 40
0.2500000000000001
 40
0.2500000000000001
 40
0.5000000000000002
 40
0.5000000000000002
 40
1.0
 40
1.0
 40
1.0
 40
1.0
 10
1294.331477848555
 20
1006.281519749632
 30
0.0
 10
1295.609165824154
 20
1006.281519749632
 30
0.0
 10
1296.860915510847
 20
1006.039278548325
 30
0.0
 10
1299.219113034331
 20
1005.097566757704
 30
0.0
 10
1300.301478303918
 20
1004.402866036539
 30
0.0
 10
1303.050982224466
 20
1001.791505917405
 30
0.0
 10
1304.18837732731
 20
999.3426281170416
 30
0.0
 10
1304.318474524785
 20
996.7905667220425
 30
0.0
  0
SPLINE
  5
64
330
1F
100
AcDbEntity
  8
NECK
  6
Continuous
 62
     7
100
AcDbSpline
210
0.0
220
0.0
230
1.0
 70
     8
 71
     3
 72
    12
 73
     8
 74
     0
 42
0.0000000006482759
 43
0.0000000001
 40
0.0
 40
0.0
 40
0.0
 40
0.0
 40
0.2499999999999994
 40
0.2499999999999994
 40
0.4999999999999996
 40
0.4999999999999996
 40
1.0
 40
1.0
 40
1.0
 40
1.0
 10
1304.318474524439
 20
1065.771797429769
 30
0.0
 10
1304.253425908196
 20
1064.495766388297
 30
0.0
 10
1303.947779009479
 20
1063.257973776146
 30
0.0
 10
1302.887253625401
 20
1060.950763635069
 30
0.0
 10
1302.138367944353
 20
1059.905161173103
 30
0.0
 10
1299.390451465809
 20
1057.292122671689
 30
0.0
 10
1296.886854514445
 20
1056.280844401733
 30
0.0
 10
1294.331477847919
 20
1056.280844401733
 30
0.0
  0
ARC
  5
66
330
1F
100
AcDbEntity
  8
NECK
  6
HIDDEN2
 62
     7
100
AcDbCircle
 10
975.2168485179
 20
1031.2811820743
 30
0.0
 40
330.9040386392124
100
AcDbArc
 50
5.9785792096
 51
5.9828902465
  0
ARC
  5
67
330
1F
100
AcDbEntity
  8
NECK
  6
HIDDEN2
 62
     7
100
AcDbCircle
 10
975.2168485179
 20
1031.2811820743
 30
0.0
 40
330.9040386392124
100
AcDbArc
 50
354.017109754
 51
354.0214806379
  0
SPLINE
  5
68
330
1F
100
AcDbEntity
  8
NECK
  6
HIDDEN2
 62
     7
100
AcDbSpline
210
0.0
220
0.0
230
1.0
 70
     8
 71
     3
 72
     8
 73
     4
 74
     0
 42
0.0000000004024855
 43
0.0000000001
 40
0.0
 40
0.0
 40
0.0
 40
0.0
 40
0.0098907871855255
 40
0.0098907871855255
 40
0.0098907871855255
 40
0.0098907871855255
 10
1423.413527164052
 20
1347.510918150353
 30
0.0
 10
1423.413483387632
 20
1347.50851121858
 30
0.0
 10
1423.411981224398
 20
1347.425857453609
 30
0.0
 10
1423.409250089401
 20
1347.265212706304
 30
0.0
  0
SPLINE
  5
69
330
1F
100
AcDbEntity
  8
NECK
  6
HIDDEN2
 62
     7
100
AcDbSpline
210
0.0
220
0.0
230
1.0
 70
     8
 71
     3
 72
     8
 73
     4
 74
     0
 42
0.0000000004046821
 43
0.0000000001
 40
0.990105108091195
 40
0.990105108091195
 40
0.990105108091195
 40
0.990105108091195
 40
1.0
 40
1.0
 40
1.0
 40
1.0
 10
1423.409268365826
 20
715.2959191255815
 30
0.0
 10
1423.411994218289
 20
715.1356670823039
 30
0.0
 10
1423.413483360405
 20
715.0538544362693
 30
0.0
 10
1423.413527164054
 20
715.0514460010038
 30
0.0
  0
ARC
  5
6A
330
1F
100
AcDbEntity
  8
NECK
  6
HIDDEN2
 62
     7
100
AcDbCircle
 10
169853.4075671508
 20
1031.281182077
 30
0.0
 40
168423.6462028068
100
AcDbArc
 50
180.1034171121
 51
180.1034962225
  0
ARC
  5
6B
330
1F
100
AcDbEntity
  8
NECK
  6
HIDDEN2
 62
     7
100
AcDbCircle
 10
169853.4075671508
 20
1031.281182077
 30
0.0
 40
168423.6462028068
100
AcDbArc
 50
179.8965037775
 51
179.8965824394
  0
LINE
  5
6C
330
1F
100
AcDbEntity
  8
NECK
  6
Continuous
 62
     7
100
AcDbLine
 10
1431.9487115059
 20
1339.9054180884
 30
0.0
 11
1431.9487115059
 21
722.656946063
 31
0.0
  0
LINE
  5
6D
330
1F
100
AcDbEntity
  8
NECK
  6
HIDDEN2
 62
     7
100
AcDbLine
 10
1293.9487115059
 20
983.1587890915
 30
0.0
 11
1293.9487115059
 21
1079.4035750598
 31
0.0
  0
LINE
  5
6E
330
1F
100
AcDbEntity
  8
NECK
  6
HIDDEN2
 62
     7
100
AcDbLine
 10
1293.9487115059
 20
918.4190973298
 30
0.0
 11
1293.9487115059
 21
918.605211599
 31
0.0
  0
LINE
  5
6F
330
1F
100
AcDbEntity
  8
NECK
  6
HIDDEN2
 62
     7
100
AcDbLine
 10
1293.9487115059
 20
918.605211599
 30
0.0
 11
1293.9487115059
 21
925.0878876549
 31
0.0
  0
SPLINE
  5
70
330
1F
100
AcDbEntity
  8
NECK
  6
HIDDEN2
 62
     7
100
AcDbSpline
210
0.0
220
0.0
230
1.0
 70
     8
 71
     3
 72
     8
 73
     4
 74
     0
 42
0.0000000005486408
 43
0.0000000001
 40
0.0
 40
0.0
 40
0.0
 40
0.0
 40
0.0077507853838005
 40
0.0077507853838005
 40
0.0077507853838005
 40
0.0077507853838005
 10
1306.324431319943
 20
839.9160408478643
 30
0.0
 10
1306.324471272532
 20
839.9191957996647
 30
0.0
 10
1306.325074344838
 20
839.9667181323658
 30
0.0
 10
1306.326165046666
 20
840.0573026965169
 30
0.0
  0
SPLINE
  5
71
330
1F
100
AcDbEntity
  8
NECK
  6
HIDDEN2
 62
     7
100
AcDbSpline
210
0.0
220
0.0
230
1.0
 70
     8
 71
     3
 72
     8
 73
     4
 74
     0
 42
0.0000000005367845
 43
0.0000000001
 40
0.9922735018474145
 40
0.9922735018474145
 40
0.9922735018474145
 40
0.9922735018474145
 40
1.0
 40
1.0
 40
1.0
 40
1.0
 10
1306.32619172662
 20
1222.502393653065
 30
0.0
 10
1306.325085893789
 20
1222.594488001793
 30
0.0
 10
1306.324471060492
 20
1222.643185102685
 30
0.0
 10
1306.324431319947
 20
1222.646323303493
 30
0.0
  0
LINE
  5
72
330
1F
100
AcDbEntity
  8
NECK
  6
Continuous
 62
     7
100
AcDbLine
 10
1283.9487115059
 20
883.096017949
 30
0.0
 11
1283.9487115059
 21
884.8374557831
 31
0.0
  0
LINE
  5
73
330
1F
100
AcDbEntity
  8
NECK
  6
Continuous
 62
     7
100
AcDbLine
 10
1283.9487115059
 20
927.1012346259
 30
0.0
 11
1283.9487115059
 21
995.3849785271
 31
0.0
  0
LINE
  5
74
330
1F
100
AcDbEntity
  8
NECK
  6
Continuous
 62
     7
100
AcDbLine
 10
1283.9487115059
 20
1067.1726488944
 30
0.0
 11
1283.9487115059
 21
1179.46631679
 31
0.0
  0
LINE
  5
75
330
1F
100
AcDbEntity
  8
NECK
  6
Continuous
 62
     7
100
AcDbLine
 10
1283.9487115059
 20
884.8374473208
 30
0.0
 11
1283.9487115059
 21
900.2794553243
 31
0.0
  0
LINE
  5
76
330
1F
100
AcDbEntity
  8
NECK
  6
Continuous
 62
     7
100
AcDbLine
 10
1283.9487115059
 20
900.2794553243
 30
0.0
 11
1283.9487115059
 21
912.567400453
 31
0.0
  0
LINE
  5
77
330
1F
100
AcDbEntity
  8
NECK
  6
Continuous
 62
     7
100
AcDbLine
 10
1283.9487115059
 20
912.567400453
 30
0.0
 11
1283.9487115059
 21
927.0394626802
 31
0.0
  0
LINE
  5
78
330
1F
100
AcDbEntity
  8
NECK
  6
Continuous
 62
     7
100
AcDbLine
 10
1283.9487115059
 20
1056.2808444017
 30
0.0
 11
1283.9487115059
 21
1006.2815197496
 31
0.0
  0
LINE
  5
79
330
1F
100
AcDbEntity
  8
NECK
  6
Continuous
 62
     7
100
AcDbLine
 10
1286.9487115059
 20
1197.2797749454
 30
0.0
 11
1286.9487115059
 21
1185.282589206
 31
0.0
  0
LINE
  5
7A
330
1F
100
AcDbEntity
  8
NECK
  6
Continuous
 62
     7
100
AcDbLine
 10
1283.9487115059
 20
1183.2822373693
 30
0.0
 11
1283.9487115059
 21
1199.2801267821
 31
0.0
  0
LINE
  5
7B
330
1F
100
AcDbEntity
  8
NECK
  6
Continuous
 62
     7
100
AcDbLine
 10
1286.9487115059
 20
877.2797749454
 30
0.0
 11
1286.9487115059
 21
865.282589206
 31
0.0
  0
LINE
  5
7C
330
1F
100
AcDbEntity
  8
NECK
  6
Continuous
 62
     7
100
AcDbLine
 10
1283.9487115059
 20
863.2822373693
 30
0.0
 11
1283.9487115059
 21
879.2801267821
 31
0.0
  0
LINE
  5
7D
330
1F
100
AcDbEntity
  8
NECK
  6
HIDDEN2
 62
     7
100
AcDbLine
 10
1299.9487115059
 20
914.2811820757
 30
0.0
 11
1299.9487115059
 21
898.2811820757
 31
0.0
  0
LINE
  5
7E
330
1F
100
AcDbEntity
  8
NECK
  6
Continuous
 62
     7
100
AcDbLine
 10
1286.9487115059
 20
877.2797749454
 30
0.0
 11
1297.9487115059
 21
877.2797749454
 31
0.0
  0
LINE
  5
7F
330
1F
100
AcDbEntity
  8
NECK
  6
Continuous
 62
     7
100
AcDbLine
 10
1286.9487115059
 20
879.2801267821
 30
0.0
 11
1286.9487115059
 21
877.2797749454
 31
0.0
  0
LINE
  5
80
330
1F
100
AcDbEntity
  8
NECK
  6
Continuous
 62
     7
100
AcDbLine
 10
1283.9487115059
 20
879.2801267821
 30
0.0
 11
1286.9487115059
 21
879.2801267821
 31
0.0
  0
LINE
  5
81
330
1F
100
AcDbEntity
  8
NECK
  6
Continuous
 62
     7
100
AcDbLine
 10
1297.9487115059
 20
877.2797749454
 30
0.0
 11
1297.9487115059
 21
865.282589206
 31
0.0
  0
LINE
  5
82
330
1F
100
AcDbEntity
  8
NECK
  6
Continuous
 62
     7
100
AcDbLine
 10
1297.9487115059
 20
865.282589206
 30
0.0
 11
1286.9487115059
 21
865.282589206
 31
0.0
  0
LINE
  5
83
330
1F
100
AcDbEntity
  8
NECK
  6
Continuous
 62
     7
100
AcDbLine
 10
1283.9487115059
 20
879.2801267821
 30
0.0
 11
1283.9487115059
 21
883.096017949
 31
0.0
  0
LINE
  5
84
330
1F
100
AcDbEntity
  8
NECK
  6
Continuous
 62
     7
100
AcDbLine
 10
1286.9487115059
 20
865.282589206
 30
0.0
 11
1286.9487115059
 21
863.2822373693
 31
0.0
  0
LINE
  5
85
330
1F
100
AcDbEntity
  8
NECK
  6
Continuous
 62
     7
100
AcDbLine
 10
1286.9487115059
 20
863.2822373693
 30
0.0
 11
1283.9487115059
 21
863.2822373693
 31
0.0
  0
SPLINE
  5
86
330
1F
100
AcDbEntity
  8
NECK
  6
Continuous
 62
     7
100
AcDbSpline
210
0.0
220
0.0
230
1.0
 70
     8
 71
     3
 72
    18
 73
    14
 74
     0
 42
0.0000000017592455
 43
0.0000000001
 40
0.0
 40
0.0
 40
0.0
 40
0.0
 40
0.2500000000000004
 40
0.2500000000000004
 40
0.3749999999999985
 40
0.3749999999999985
 40
0.4999999999999967
 40
0.4999999999999967
 40
0.6249999999999948
 40
0.6249999999999948
 40
0.7499999999999928
 40
0.7499999999999928
 40
1.0
 40
1.0
 40
1.0
 40
1.0
 10
1283.948711505905
 20
883.0960179489862
 30
0.0
 10
1283.948711505905
 20
883.5728224197669
 30
0.0
 10
1284.015551573941
 20
884.0382438401485
 30
0.0
 10
1284.213770752023
 20
884.719693266286
 30
0.0
 10
1284.296927559202
 20
884.9444040229162
 30
0.0
 10
1284.491512043085
 20
885.3739587099615
 30
0.0
 10
1284.603367138966
 20
885.5806654809228
 30
0.0
 10
1284.856077995665
 20
885.9780071751397
 30
0.0
 10
1284.998120439445
 20
886.1699674679571
 30
0.0
 10
1285.306820015298
 20
886.5301094080869
 30
0.0
 10
1285.472435014431
 20
886.6975256405116
 30
0.0
 10
1286.002166568258
 20
887.162831333714
 30
0.0
 10
1286.40348910965
 20
887.4260712642006
 30
0.0
 10
1286.835620353095
 20
887.6275784164178
 30
0.0
  0
LINE
  5
87
330
1F
100
AcDbEntity
  8
NECK
  6
Continuous
 62
     7
100
AcDbLine
 10
1283.9487115059
 20
851.2813867253
 30
0.0
 11
1283.9487115059
 21
863.2822373693
 31
0.0
  0
LINE
  5
88
330
1F
100
AcDbEntity
  8
NECK
  6
Continuous
 62
     7
100
AcDbLine
 10
1292.2165661849
 20
890.1367685199
 30
0.0
 11
1286.8356203531
 21
887.6275784164
 31
0.0
  0
SPLINE
  5
89
330
1F
100
AcDbEntity
  8
NECK
  6
Continuous
 62
     7
100
AcDbSpline
210
0.0
220
0.0
230
1.0
 70
     8
 71
     3
 72
    24
 73
    20
 74
     0
 42
0.0000000012713851
 43
0.0000000001
 40
0.0
 40
0.0
 40
0.0
 40
0.0
 40
0.1249999999999926
 40
0.1249999999999926
 40
0.1874999999999931
 40
0.1874999999999931
 40
0.2499999999999937
 40
0.2499999999999937
 40
0.3749999999999947
 40
0.3749999999999947
 40
0.4999999999999957
 40
0.4999999999999957
 40
0.6249999999999968
 40
0.6249999999999968
 40
0.7499999999999978
 40
0.7499999999999978
 40
0.8749999999999989
 40
0.8749999999999989
 40
1.0
 40
1.0
 40
1.0
 40
1.0
 10
1288.948711505905
 20
846.2813646009995
 30
0.0
 10
1288.618575111019
 20
846.2813646009995
 30
0.0
 10
1288.293952469095
 20
846.3137407340981
 30
0.0
 10
1287.814950817423
 20
846.4088825670699
 30
0.0
 10
1287.65661547255
 20
846.4484171150397
 30
0.0
 10
1287.342669155963
 20
846.5434834217052
 30
0.0
 10
1287.1866253718
 20
846.5992856484646
 30
0.0
 10
1286.732695692662
 20
846.7873077991785
 30
0.0
 10
1286.445628926157
 20
846.940720375603
 30
0.0
 10
1285.902317815299
 20
847.3031627107118
 30
0.0
 10
1285.645040263506
 20
847.5141377511088
 30
0.0
 10
1285.183834935397
 20
847.975016464204
 30
0.0
 10
1284.976858173191
 20
848.2264876165842
 30
0.0
 10
1284.611269056712
 20
848.7724839541492
 30
0.0
 10
1284.455820051425
 20
849.0633039099909
 30
0.0
 10
1284.206198184182
 20
849.6644417610577
 30
0.0
 10
1284.110147609608
 20
849.9787793848759
 30
0.0
 10
1283.981091098882
 20
850.6247118972467
 30
0.0
 10
1283.948711505905
 20
850.9512503719811
 30
0.0
 10
1283.948711505905
 20
851.2813867252601
 30
0.0
  0
SPLINE
  5
8A
330
1F
100
AcDbEntity
  8
NECK
  6
Continuous
 62
     7
100
AcDbSpline
210
0.0
220
0.0
230
1.0
 70
     8
 71
     3
 72
    16
 73
    12
 74
     0
 42
0.0000000029302626
 43
0.0000000001
 40
0.0
 40
0.0
 40
0.0
 40
0.0
 40
0.2499999999999823
 40
0.2499999999999823
 40
0.3749999999999853
 40
0.3749999999999853
 40
0.4999999999999882
 40
0.4999999999999882
 40
0.7499999999999941
 40
0.7499999999999941
 40
1.0
 40
1.0
 40
1.0
 40
1.0
 10
1293.948711505905
 20
892.8557094733645
 30
0.0
 10
1293.948711505905
 20
892.5696264449565
 30
0.0
 10
1293.908607581452
 20
892.2903732184229
 30
0.0
 10
1293.78967629402
 20
891.8815029811166
 30
0.0
 10
1293.739782282052
 20
891.7466763008146
 30
0.0
 10
1293.623031715993
 20
891.4889430361028
 30
0.0
 10
1293.555918714504
 20
891.3649187509003
 30
0.0
 10
1293.328479078346
 20
891.0073105773664
 30
0.0
 10
1293.140424397521
 20
890.7878626400211
 30
0.0
 10
1292.716638936407
 20
890.4156173059228
 30
0.0
 10
1292.475845227238
 20
890.2576730342364
 30
0.0
 10
1292.216566184929
 20
890.1367685198586
 30
0.0
  0
LINE
  5
8B
330
1F
100
AcDbEntity
  8
NECK
  6
Continuous
 62
     7
100
AcDbLine
 10
1288.9487115059
 20
846.281364601
 30
0.0
 11
1297.0083729499
 21
846.281364601
 31
0.0
  0
LINE
  5
8C
330
1F
100
AcDbEntity
  8
NECK
  6
Continuous
 62
     7
100
AcDbLine
 10
1293.9487115059
 20
892.8557094734
 30
0.0
 11
1293.9487115059
 21
910.3617403135
 31
0.0
  0
SPLINE
  5
8D
330
1F
100
AcDbEntity
  8
NECK
  6
Continuous
 62
     7
100
AcDbSpline
210
0.0
220
0.0
230
1.0
 70
     8
 71
     3
 72
    22
 73
    18
 74
     0
 42
0.0000000008328659
 43
0.0000000001
 40
0.0
 40
0.0
 40
0.0
 40
0.0
 40
0.2500000000000103
 40
0.2500000000000103
 40
0.3125000000000107
 40
0.3125000000000107
 40
0.375000000000011
 40
0.375000000000011
 40
0.5000000000000089
 40
0.5000000000000089
 40
0.6250000000000067
 40
0.6250000000000067
 40
0.7500000000000044
 40
0.7500000000000044
 40
0.8750000000000023
 40
0.8750000000000023
 40
1.0
 40
1.0
 40
1.0
 40
1.0
 10
1297.008372949914
 20
846.2813646009995
 30
0.0
 10
1298.01592489946
 20
846.2813646009994
 30
0.0
 10
1298.998120896202
 20
846.1324773326926
 30
0.0
 10
1300.194714075729
 20
845.7634483277747
 30
0.0
 10
1300.433200493785
 20
845.6799416326432
 30
0.0
 10
1300.899436898328
 20
845.4966943688153
 30
0.0
 10
1301.127960336067
 20
845.3967797642968
 30
0.0
 10
1301.800035670818
 20
845.0726850844576
 30
0.0
 10
1302.230166424948
 20
844.8242873746597
 30
0.0
 10
1303.054301061617
 20
844.2623032167753
 30
0.0
 10
1303.450490185018
 20
843.9460786914021
 30
0.0
 10
1304.1813275727
 20
843.2668791952382
 30
0.0
 10
1304.518895064358
 20
842.9024862847618
 30
0.0
 10
1305.138826251409
 20
842.1245580003523
 30
0.0
 10
1305.422679251074
 20
841.7083034941983
 30
0.0
 10
1305.924242247873
 20
840.8376229540081
 30
0.0
 10
1306.14132452048
 20
840.3853617314211
 30
0.0
 10
1306.324431319943
 20
839.9160408478643
 30
0.0
  0
SPLINE
  5
8E
330
1F
100
AcDbEntity
  8
NECK
  6
Continuous
 62
     7
100
AcDbSpline
210
0.0
220
0.0
230
1.0
 70
     8
 71
     3
 72
    18
 73
    14
 74
     0
 42
0.0000000006777128
 43
0.0000000001
 40
0.0
 40
0.0
 40
0.0
 40
0.0
 40
0.2499999999999994
 40
0.2499999999999994
 40
0.3749999999999992
 40
0.3749999999999992
 40
0.4999999999999989
 40
0.4999999999999989
 40
0.6249999999999987
 40
0.6249999999999987
 40
0.7499999999999983
 40
0.7499999999999983
 40
1.0
 40
1.0
 40
1.0
 40
1.0
 10
1293.948711505905
 20
925.0878876549466
 30
0.0
 10
1293.948711505905
 20
923.8661527866753
 30
0.0
 10
1293.840237115546
 20
922.6414021103035
 30
0.0
 10
1293.692240051469
 20
920.8036060917143
 30
0.0
 10
1293.6451760512
 20
920.1909429013059
 30
0.0
 10
1293.578578788586
 20
918.9648334789963
 30
0.0
 10
1293.559363448594
 20
918.3513782046062
 30
0.0
 10
1293.558866628957
 20
917.1233887240985
 30
0.0
 10
1293.577603523017
 20
916.5088464016011
 30
0.0
 10
1293.643754476497
 20
915.2789765597681
 30
0.0
 10
1293.690765369308
 20
914.6648162692048
 30
0.0
 10
1293.838992633721
 20
912.8227353241945
 30
0.0
 10
1293.948711505905
 20
911.5952872996995
 30
0.0
 10
1293.948711505905
 20
910.3617403135172
 30
0.0
  0
SPLINE
  5
8F
330
1F
100
AcDbEntity
  8
NECK
  6
Continuous
 62
     7
100
AcDbSpline
210
0.0
220
0.0
230
1.0
 70
     8
 71
     3
 72
    16
 73
    12
 74
     0
 42
0.0000000000569441
 43
0.0000000001
 40
0.0
 40
0.0
 40
0.0
 40
0.0
 40
0.2500000000000001
 40
0.2500000000000001
 40
0.5000000000000002
 40
0.5000000000000002
 40
0.7500000000000003
 40
0.7500000000000003
 40
0.8750000000000001
 40
0.8750000000000001
 40
1.0
 40
1.0
 40
1.0
 40
1.0
 10
1423.413527164054
 20
715.0514460010038
 30
0.0
 10
1410.03857465487
 20
721.2867183039306
 30
0.0
 10
1397.499757518538
 20
728.6841094543888
 30
0.0
 10
1374.008808271797
 20
745.6841764897993
 30
0.0
 10
1363.053204940023
 20
755.2894089398673
 30
0.0
 10
1342.832333460684
 20
776.8195994979046
 30
0.0
 10
1333.912600351033
 20
788.3753738802145
 30
0.0
 10
1322.245887826675
 20
806.8464681206134
 30
0.0
 10
1318.644677333937
 20
813.1945408376007
 30
0.0
 10
1312.028698061878
 20
826.2801094544991
 30
0.0
 10
1309.008472014813
 20
833.0365784023663
 30
0.0
 10
1306.324431319943
 20
839.9160408478643
 30
0.0
  0
LINE
  5
90
330
1F
100
AcDbEntity
  8
NECK
  6
Continuous
 62
     7
100
AcDbLine
 10
1293.9487115059
 20
925.0878876549
 30
0.0
 11
1293.9487115059
 21
983.1587890915
 31
0.0
  0
SPLINE
  5
91
330
1F
100
AcDbEntity
  8
NECK
  6
Continuous
 62
     7
100
AcDbSpline
210
0.0
220
0.0
230
1.0
 70
     8
 71
     3
 72
    22
 73
    18
 74
     0
 42
0.0000000012581919
 43
0.0000000001
 40
0.0
 40
0.0
 40
0.0
 40
0.0
 40
0.125
 40
0.125
 40
0.25
 40
0.25
 40
0.375
 40
0.375
 40
0.5
 40
0.5
 40
0.625
 40
0.625
 40
0.75
 40
0.75
 40
0.875
 40
0.875
 40
1.0
 40
1.0
 40
1.0
 40
1.0
 10
1289.90703933809
 20
989.5029702393126
 30
0.0
 10
1290.207518142509
 20
989.3628539940257
 30
0.0
 10
1290.500109086492
 20
989.2000310580595
 30
0.0
 10
1291.052266356366
 20
988.8394430450871
 30
0.0
 10
1291.314314218753
 20
988.6406237527133
 30
0.0
 10
1291.810338312553
 20
988.2059212794823
 30
0.0
 10
1292.04569092507
 20
987.9683104574373
 30
0.0
 10
1292.478527022609
 20
987.463646387599
 30
0.0
 10
1292.676135312822
 20
987.1970556603345
 30
0.0
 10
1293.03355711661
 20
986.6352239660512
 30
0.0
 10
1293.191647734132
 20
986.3422295436546
 30
0.0
 10
1293.462962509716
 20
985.7420142119562
 30
0.0
 10
1293.577070419901
 20
985.4334321378454
 30
0.0
 10
1293.76180734219
 20
984.7991697592238
 30
0.0
 10
1293.83254789407
 20
984.4711085100199
 30
0.0
 10
1293.925610191176
 20
983.8162544590314
 30
0.0
 10
1293.948711505905
 20
983.4879529073346
 30
0.0
 10
1293.948711505905
 20
983.1587890915177
 30
0.0
  0
SPLINE
  5
92
330
1F
100
AcDbEntity
  8
NECK
  6
Continuous
 62
     7
100
AcDbSpline
210
0.0
220
0.0
230
1.0
 70
     8
 71
     3
 72
    10
 73
     6
 74
     0
 42
0.0000000007973593
 43
0.0000000001
 40
0.0
 40
0.0
 40
0.0
 40
0.0
 40
0.5
 40
0.5
 40
1.0
 40
1.0
 40
1.0
 40
1.0
 10
1431.948711505905
 20
720.4895395745883
 30
0.0
 10
1431.948711505905
 20
718.4635597919633
 30
0.0
 10
1430.879812075394
 20
716.5175293761556
 30
0.0
 10
1427.46802335858
 20
714.3426440155614
 30
0.0
 10
1425.249771009123
 20
714.1954070445457
 30
0.0
 10
1423.413527164054
 20
715.0514460010038
 30
0.0
  0
LINE
  5
93
330
1F
100
AcDbEntity
  8
NECK
  6
Continuous
 62
     7
100
AcDbLine
 10
1431.9487115059
 20
722.656946063
 30
0.0
 11
1431.9487115059
 21
720.4895395746
 31
0.0
  0
LINE
  5
94
330
1F
100
AcDbEntity
  8
NECK
  6
Continuous
 62
     7
100
AcDbLine
 10
1286.8356201972
 20
990.935203679
 30
0.0
 11
1289.9070393381
 21
989.5029702393
 31
0.0
  0
SPLINE
  5
95
330
1F
100
AcDbEntity
  8
NECK
  6
Continuous
 62
     7
100
AcDbSpline
210
0.0
220
0.0
230
1.0
 70
     8
 71
     3
 72
    22
 73
    18
 74
     0
 42
0.000000001761466
 43
0.0000000001
 40
0.0
 40
0.0
 40
0.0
 40
0.0
 40
0.125
 40
0.125
 40
0.25
 40
0.25
 40
0.375
 40
0.375
 40
0.5
 40
0.5
 40
0.625
 40
0.625
 40
0.75
 40
0.75
 40
0.875
 40
0.875
 40
1.0
 40
1.0
 40
1.0
 40
1.0
 10
1286.835620197201
 20
990.9352036790177
 30
0.0
 10
1286.622694814067
 20
991.034492930701
 30
0.0
 10
1286.416905968561
 20
991.1486322166928
 30
0.0
 10
1286.019963937287
 20
991.4073653396866
 30
0.0
 10
1285.829445303823
 20
991.5518588890031
 30
0.0
 10
1285.47315343192
 20
991.8644347172625
 30
0.0
 10
1285.305163791354
 20
992.0344402370263
 30
0.0
 10
1284.996818224686
 20
992.3945005940907
 30
0.0
 10
1284.85684407554
 20
992.583730166271
 30
0.0
 10
1284.604546793943
 20
992.9801045962834
 30
0.0
 10
1284.492222688113
 20
993.1872488234562
 30
0.0
 10
1284.296168003257
 20
993.6200632222959
 30
0.0
 10
1284.213839748838
 20
993.8430923571624
 30
0.0
 10
1284.082345982467
 20
994.2946737073834
 30
0.0
 10
1284.03266076441
 20
994.5243529823365
 30
0.0
 10
1283.965752436776
 20
994.9915707516282
 30
0.0
 10
1283.948711505905
 20
995.2306720934032
 30
0.0
 10
1283.948711505905
 20
995.4667690882869
 30
0.0
  0
SPLINE
  5
96
330
1F
100
AcDbEntity
  8
NECK
  6
Continuous
 62
     7
100
AcDbSpline
210
0.0
220
0.0
230
1.0
 70
     8
 71
     3
 72
    16
 73
    12
 74
     0
 42
0.0000000020262971
 43
0.0000000001
 40
0.0
 40
0.0
 40
0.0
 40
0.0
 40
0.2500000000000208
 40
0.2500000000000208
 40
0.3750000000000173
 40
0.3750000000000173
 40
0.5000000000000138
 40
0.5000000000000138
 40
0.7500000000000069
 40
0.7500000000000069
 40
1.0
 40
1.0
 40
1.0
 40
1.0
 10
1430.036139007093
 20
727.0493201885253
 30
0.0
 10
1430.339242262012
 20
726.7672600864066
 30
0.0
 10
1430.608175402898
 20
726.4590800401287
 30
0.0
 10
1430.962375190861
 20
725.9592011043889
 30
0.0
 10
1431.072175771012
 20
725.7862561752231
 30
0.0
 10
1431.274792854209
 20
725.4273835347693
 30
0.0
 10
1431.367313626226
 20
725.2416682036937
 30
0.0
 10
1431.613005032683
 20
724.6778153040522
 30
0.0
 10
1431.737073210439
 20
724.288955887449
 30
0.0
 10
1431.905434875543
 20
723.4852168959108
 30
0.0
 10
1431.948711505905
 20
723.0709864988514
 30
0.0
 10
1431.948711505905
 20
722.6569460629556
 30
0.0
  0
LINE
  5
97
330
1F
100
AcDbEntity
  8
NECK
  6
Continuous
 62
     7
100
AcDbLine
 10
1283.9487115059
 20
995.4667690883
 30
0.0
 11
1283.9487115059
 21
1006.2815197496
 31
0.0
  0
SPLINE
  5
98
330
1F
100
AcDbEntity
  8
NECK
  6
Continuous
 62
     7
100
AcDbSpline
210
0.0
220
0.0
230
1.0
 70
     8
 71
     3
 72
    18
 73
    14
 74
     0
 42
0.0000000000327458
 43
0.0000000001
 40
0.0
 40
0.0
 40
0.0
 40
0.0
 40
0.2499999999999999
 40
0.2499999999999999
 40
0.3749999999999998
 40
0.3749999999999998
 40
0.4999999999999998
 40
0.4999999999999998
 40
0.7499999999999999
 40
0.7499999999999999
 40
0.8749999999999999
 40
0.8749999999999999
 40
1.0
 40
1.0
 40
1.0
 40
1.0
 10
1430.036139007093
 20
727.0493201885253
 30
0.0
 10
1411.280081379811
 20
744.503225561819
 30
0.0
 10
1394.500291026485
 20
763.4823293173736
 30
0.0
 10
1372.180865758545
 20
794.1506936631826
 30
0.0
 10
1365.219535813851
 20
804.7427509608834
 30
0.0
 10
1352.274816142613
 20
826.6815979036396
 30
0.0
 10
1346.278391352719
 20
838.0708362986592
 30
0.0
 10
1330.146606617858
 20
872.6683706639666
 30
0.0
 10
1321.715647380574
 20
896.5031649727885
 30
0.0
 10
1312.51208538676
 20
933.3959440116039
 30
0.0
 10
1310.021052210993
 20
945.8938552494386
 30
0.0
 10
1306.241728465658
 20
971.2502549806959
 30
0.0
 10
1304.971023788543
 20
983.9897853316974
 30
0.0
 10
1304.318474524785
 20
996.7905667220425
 30
0.0
  0
LINE
  5
99
330
1F
100
AcDbEntity
  8
NECK
  6
Continuous
 62
     7
100
AcDbLine
 10
1294.3314778486
 20
1006.2815197496
 30
0.0
 11
1283.9487115059
 21
1006.2815197496
 31
0.0
  0
LINE
  5
9A
330
1F
100
AcDbEntity
  8
NECK
  6
Continuous
 62
     7
100
AcDbLine
 10
1297.9487115059
 20
1185.282589206
 30
0.0
 11
1286.9487115059
 21
1185.282589206
 31
0.0
  0
LINE
  5
9B
330
1F
100
AcDbEntity
  8
NECK
  6
Continuous
 62
     7
100
AcDbLine
 10
1286.9487115059
 20
1185.282589206
 30
0.0
 11
1286.9487115059
 21
1183.2822373693
 31
0.0
  0
LINE
  5
9C
330
1F
100
AcDbEntity
  8
NECK
  6
Continuous
 62
     7
100
AcDbLine
 10
1286.9487115059
 20
1183.2822373693
 30
0.0
 11
1283.9487115059
 21
1183.2822373693
 31
0.0
  0
LINE
  5
9D
330
1F
100
AcDbEntity
  8
NECK
  6
Continuous
 62
     7
100
AcDbLine
 10
1297.9487115059
 20
1197.2797749454
 30
0.0
 11
1297.9487115059
 21
1185.282589206
 31
0.0
  0
LINE
  5
9E
330
1F
100
AcDbEntity
  8
NECK
  6
Continuous
 62
     7
100
AcDbLine
 10
1286.9487115059
 20
1197.2797749454
 30
0.0
 11
1297.9487115059
 21
1197.2797749454
 31
0.0
  0
LINE
  5
9F
330
1F
100
AcDbEntity
  8
NECK
  6
Continuous
 62
     7
100
AcDbLine
 10
1283.9487115059
 20
1179.46631679
 30
0.0
 11
1283.9487115059
 21
1183.2822373693
 31
0.0
  0
LINE
  5
A0
330
1F
100
AcDbEntity
  8
NECK
  6
Continuous
 62
     7
100
AcDbLine
 10
1286.9487115059
 20
1199.2801267821
 30
0.0
 11
1286.9487115059
 21
1197.2797749454
 31
0.0
  0
LINE
  5
A1
330
1F
100
AcDbEntity
  8
NECK
  6
Continuous
 62
     7
100
AcDbLine
 10
1283.9487115059
 20
1199.2801267821
 30
0.0
 11
1286.9487115059
 21
1199.2801267821
 31
0.0
  0
SPLINE
  5
A2
330
1F
100
AcDbEntity
  8
NECK
  6
Continuous
 62
     7
100
AcDbSpline
210
0.0
220
0.0
230
1.0
 70
     8
 71
     3
 72
    18
 73
    14
 74
     0
 42
0.0000000017592456
 43
0.0000000001
 40
0.0
 40
0.0
 40
0.0
 40
0.0
 40
0.2499999999999892
 40
0.2499999999999892
 40
0.3749999999999887
 40
0.3749999999999887
 40
0.4999999999999881
 40
0.4999999999999881
 40
0.6249999999999875
 40
0.6249999999999875
 40
0.749999999999987
 40
0.749999999999987
 40
1.0
 40
1.0
 40
1.0
 40
1.0
 10
1286.835620350247
 20
1174.93475657966
 30
0.0
 10
1286.403489152543
 20
1175.13626369769
 30
0.0
 10
1286.009922878654
 20
1175.39353830238
 30
0.0
 10
1285.476093003027
 20
1175.861181277798
 30
0.0
 10
1285.307580359984
 20
1176.031514585839
 30
0.0
 10
1285.000508451947
 20
1176.389407158533
 30
0.0
 10
1284.860441502471
 20
1176.578141101696
 30
0.0
 10
1284.607129912485
 20
1176.975100224681
 30
0.0
 10
1284.493185576343
 20
1177.184961119244
 30
0.0
 10
1284.297250568098
 20
1177.61694121047
 30
0.0
 10
1284.215512947018
 20
1177.837792861104
 30
0.0
 10
1284.017679984786
 20
1178.514540297575
 30
0.0
 10
1283.948711505905
 20
1178.989512382171
 30
0.0
 10
1283.948711505905
 20
1179.466316790027
 30
0.0
  0
LINE
  5
A3
330
1F
100
AcDbEntity
  8
NECK
  6
Continuous
 62
     7
100
AcDbLine
 10
1283.9487115059
 20
1199.2801267821
 30
0.0
 11
1283.9487115059
 21
1211.2809774261
 31
0.0
  0
LINE
  5
A4
330
1F
100
AcDbEntity
  8
NECK
  6
Continuous
 62
     7
100
AcDbLine
 10
1286.8356203502
 20
1174.9347565797
 30
0.0
 11
1292.2165661869
 21
1172.4255666489
 31
0.0
  0
SPLINE
  5
A5
330
1F
100
AcDbEntity
  8
NECK
  6
Continuous
 62
     7
100
AcDbSpline
210
0.0
220
0.0
230
1.0
 70
     8
 71
     3
 72
    24
 73
    20
 74
     0
 42
0.0000000012713851
 43
0.0000000001
 40
0.0
 40
0.0
 40
0.0
 40
0.0
 40
0.125000000000003
 40
0.125000000000003
 40
0.1875000000000046
 40
0.1875000000000046
 40
0.2500000000000061
 40
0.2500000000000061
 40
0.375000000000005
 40
0.375000000000005
 40
0.500000000000004
 40
0.500000000000004
 40
0.6250000000000029
 40
0.6250000000000029
 40
0.7500000000000019
 40
0.7500000000000019
 40
0.875000000000001
 40
0.875000000000001
 40
1.0
 40
1.0
 40
1.0
 40
1.0
 10
1283.948711505905
 20
1211.280977426106
 30
0.0
 10
1283.948711505905
 20
1211.611113802968
 30
0.0
 10
1283.981087190546
 20
1211.935736514839
 30
0.0
 10
1284.076227780216
 20
1212.414738385292
 30
0.0
 10
1284.11576181713
 20
1212.573073822348
 30
0.0
 10
1284.210826909005
 20
1212.887020361843
 30
0.0
 10
1284.266628470587
 20
1213.04306441066
 30
0.0
 10
1284.454648559227
 20
1213.496995174126
 30
0.0
 10
1284.608059546092
 20
1213.784062779905
 30
0.0
 10
1284.970498336298
 20
1214.32737576673
 30
0.0
 10
1285.181471753544
 20
1214.584654841101
 30
0.0
 10
1285.642347601914
 20
1215.045863369618
 30
0.0
 10
1285.893817295169
 20
1215.252841656216
 30
0.0
 10
1286.439810650145
 20
1215.618433677009
 30
0.0
 10
1286.730630539988
 20
1215.773884812131
 30
0.0
 10
1287.331767195156
 20
1216.023509511725
 30
0.0
 10
1287.646103630765
 20
1216.119561096863
 30
0.0
 10
1288.292036489098
 20
1216.248619499047
 30
0.0
 10
1288.618575085752
 20
1216.280999550366
 30
0.0
 10
1288.948711505905
 20
1216.280999550366
 30
0.0
  0
SPLINE
  5
A6
330
1F
100
AcDbEntity
  8
NECK
  6
Continuous
 62
     7
100
AcDbSpline
210
0.0
220
0.0
230
1.0
 70
     8
 71
     3
 72
    16
 73
    12
 74
     0
 42
0.0000000029302628
 43
0.0000000001
 40
0.0
 40
0.0
 40
0.0
 40
0.0
 40
0.2500000000000121
 40
0.2500000000000121
 40
0.3750000000000101
 40
0.3750000000000101
 40
0.5000000000000081
 40
0.5000000000000081
 40
0.7500000000000041
 40
0.7500000000000041
 40
1.0
 40
1.0
 40
1.0
 40
1.0
 10
1292.216566186936
 20
1172.425566648945
 30
0.0
 10
1292.475845183162
 20
1172.304662165267
 30
0.0
 10
1292.711985143411
 20
1172.150297094233
 30
0.0
 10
1293.032283247831
 20
1171.869710713965
 30
0.0
 10
1293.133390858016
 20
1171.767510521763
 30
0.0
 10
1293.317634007209
 20
1171.552774553483
 30
0.0
 10
1293.401674160267
 20
1171.439533964602
 30
0.0
 10
1293.629654496149
 20
1171.082270061109
 30
0.0
 10
1293.749064438763
 20
1170.819091288954
 30
0.0
 10
1293.90733053999
 20
1170.2776925332
 30
0.0
 10
1293.948711505905
 20
1169.992708904263
 30
0.0
 10
1293.948711505905
 20
1169.706625932425
 30
0.0
  0
LINE
  5
A7
330
1F
100
AcDbEntity
  8
NECK
  6
Continuous
 62
     7
100
AcDbLine
 10
1297.0083729499
 20
1216.2809995504
 30
0.0
 11
1288.9487115059
 21
1216.2809995504
 31
0.0
  0
LINE
  5
A8
330
1F
100
AcDbEntity
  8
NECK
  6
Continuous
 62
     7
100
AcDbLine
 10
1293.9487115059
 20
1150.1697407162
 30
0.0
 11
1293.9487115059
 21
1169.7066259324
 31
0.0
  0
SPLINE
  5
A9
330
1F
100
AcDbEntity
  8
NECK
  6
Continuous
 62
     7
100
AcDbSpline
210
0.0
220
0.0
230
1.0
 70
     8
 71
     3
 72
    22
 73
    18
 74
     0
 42
0.0000000008328659
 43
0.0000000001
 40
0.0
 40
0.0
 40
0.0
 40
0.0
 40
0.2500000000000147
 40
0.2500000000000147
 40
0.3125000000000176
 40
0.3125000000000176
 40
0.3750000000000205
 40
0.3750000000000205
 40
0.5000000000000164
 40
0.5000000000000164
 40
0.6250000000000123
 40
0.6250000000000123
 40
0.7500000000000082
 40
0.7500000000000082
 40
0.8750000000000042
 40
0.8750000000000042
 40
1.0
 40
1.0
 40
1.0
 40
1.0
 10
1306.324431319947
 20
1222.646323303493
 30
0.0
 10
1305.958217699233
 20
1221.707681480535
 30
0.0
 10
1305.462517002096
 20
1220.846776534893
 30
0.0
 10
1304.683805509379
 20
1219.86615155907
 30
0.0
 10
1304.519328284743
 20
1219.674327731766
 30
0.0
 10
1304.179152523737
 20
1219.306582514364
 30
0.0
 10
1304.003010796428
 20
1219.130003900205
 30
0.0
 10
1303.456805246495
 20
1218.621690784692
 30
0.0
 10
1303.069058338449
 20
1218.3112617991
 30
0.0
 10
1302.245965322155
 20
1217.74775385966
 30
0.0
 10
1301.807366984811
 20
1217.493597760247
 30
0.0
 10
1300.90898482936
 20
1217.059609826031
 30
0.0
 10
1300.446819337884
 20
1216.877573939813
 30
0.0
 10
1299.496771787127
 20
1216.582792531849
 30
0.0
 10
1299.005815429675
 20
1216.469647882934
 30
0.0
 10
1298.012381128839
 20
1216.318852326721
 30
0.0
 10
1297.512148957173
 20
1216.280999550366
 30
0.0
 10
1297.008372949924
 20
1216.280999550366
 30
0.0
  0
SPLINE
  5
AA
330
1F
100
AcDbEntity
  8
NECK
  6
Continuous
 62
     7
100
AcDbSpline
210
0.0
220
0.0
230
1.0
 70
     8
 71
     3
 72
    14
 73
    10
 74
     0
 42
0.0000000009374584
 43
0.0000000001
 40
0.0
 40
0.0
 40
0.0
 40
0.0
 40
0.25
 40
0.25
 40
0.5
 40
0.5
 40
0.75
 40
0.75
 40
1.0
 40
1.0
 40
1.0
 40
1.0
 10
1293.948711505905
 20
1150.169740716155
 30
0.0
 10
1293.948711505905
 20
1149.280829388927
 30
0.0
 10
1293.919195885747
 20
1148.391521646985
 30
0.0
 10
1293.869853199167
 20
1146.613036286922
 30
0.0
 10
1293.85069357812
 20
1145.723867681331
 30
0.0
 10
1293.850761534374
 20
1143.945890378499
 30
0.0
 10
1293.869979805
 20
1143.05708864578
 30
0.0
 10
1293.919318006294
 20
1141.2795913987
 30
0.0
 10
1293.948711505905
 20
1140.390710291095
 30
0.0
 10
1293.948711505905
 20
1139.505359719307
 30
0.0
  0
SPLINE
  5
AB
330
1F
100
AcDbEntity
  8
NECK
  6
Continuous
 62
     7
100
AcDbSpline
210
0.0
220
0.0
230
1.0
 70
     8
 71
     3
 72
    18
 73
    14
 74
     0
 42
0.0000000000569605
 43
0.0000000001
 40
0.0
 40
0.0
 40
0.0
 40
0.0
 40
0.2499999999999992
 40
0.2499999999999992
 40
0.3749999999999988
 40
0.3749999999999988
 40
0.4999999999999984
 40
0.4999999999999984
 40
0.7499999999999989
 40
0.7499999999999989
 40
0.8749999999999996
 40
0.8749999999999996
 40
1.0
 40
1.0
 40
1.0
 40
1.0
 10
1306.324431319947
 20
1222.646323303493
 30
0.0
 10
1311.671428375845
 20
1236.351206956138
 30
0.0
 10
1318.25071787859
 20
1249.367934368701
 30
0.0
 10
1329.925014326141
 20
1267.884846574986
 30
0.0
 10
1334.127886534163
 20
1273.899264512183
 30
0.0
 10
1343.120489161021
 20
1285.532380157772
 30
0.0
 10
1347.85988799201
 20
1291.088467925606
 30
0.0
 10
1362.783769972599
 20
1307.000615166749
 30
0.0
 10
1373.66803980212
 20
1316.606878933341
 30
0.0
 10
1391.419144721447
 20
1329.489760710847
 30
0.0
 10
1397.593790644397
 20
1333.53595992506
 30
0.0
 10
1410.247612166567
 20
1340.984607640715
 30
0.0
 10
1416.744897447903
 20
1344.402068071141
 30
0.0
 10
1423.413527164052
 20
1347.510918150353
 30
0.0
  0
LINE
  5
AC
330
1F
100
AcDbEntity
  8
NECK
  6
Continuous
 62
     7
100
AcDbLine
 10
1293.9487115059
 20
1079.4035750598
 30
0.0
 11
1293.9487115059
 21
1139.5053597193
 31
0.0
  0
SPLINE
  5
AD
330
1F
100
AcDbEntity
  8
NECK
  6
Continuous
 62
     7
100
AcDbSpline
210
0.0
220
0.0
230
1.0
 70
     8
 71
     3
 72
    20
 73
    16
 74
     0
 42
0.0000000012573969
 43
0.0000000001
 40
0.0
 40
0.0
 40
0.0
 40
0.0
 40
0.1249999999999986
 40
0.1249999999999986
 40
0.2499999999999972
 40
0.2499999999999972
 40
0.3749999999999958
 40
0.3749999999999958
 40
0.4999999999999944
 40
0.4999999999999944
 40
0.7499999999999972
 40
0.7499999999999972
 40
0.8749999999999986
 40
0.8749999999999986
 40
1.0
 40
1.0
 40
1.0
 40
1.0
 10
1293.948711505905
 20
1079.403575059848
 30
0.0
 10
1293.948711505905
 20
1079.074658154984
 30
0.0
 10
1293.925646391578
 20
1078.74603117525
 30
0.0
 10
1293.832232644478
 20
1078.089371562728
 30
0.0
 10
1293.76156232003
 20
1077.762315768445
 30
0.0
 10
1293.577191230625
 20
1077.129384203854
 30
0.0
 10
1293.463195444381
 20
1076.820878245796
 30
0.0
 10
1293.191508389374
 20
1076.219813349804
 30
0.0
 10
1293.032257572571
 20
1075.92502373277
 30
0.0
 10
1292.498675745202
 20
1075.08650729302
 30
0.0
 10
1292.071163762252
 20
1074.586423586878
 30
0.0
 10
1291.320272386069
 20
1073.926279044479
 30
0.0
 10
1291.055437281326
 20
1073.725084817606
 30
0.0
 10
1290.499678829022
 20
1073.361959640469
 30
0.0
 10
1290.206635056462
 20
1073.199098365562
 30
0.0
 10
1289.90703933809
 20
1073.059393912053
 30
0.0
  0
SPLINE
  5
AE
330
1F
100
AcDbEntity
  8
NECK
  6
Continuous
 62
     7
100
AcDbSpline
210
0.0
220
0.0
230
1.0
 70
     8
 71
     3
 72
    10
 73
     6
 74
     0
 42
0.0000000007973593
 43
0.0000000001
 40
0.0
 40
0.0
 40
0.0
 40
0.0
 40
0.5
 40
0.5
 40
1.0
 40
1.0
 40
1.0
 40
1.0
 10
1423.413527164052
 20
1347.510918150353
 30
0.0
 10
1425.249771006984
 20
1348.366957105812
 30
0.0
 10
1427.465195886133
 20
1348.220418403426
 30
0.0
 10
1430.877985011802
 20
1346.047102091944
 30
0.0
 10
1431.948711505905
 20
1344.098804357631
 30
0.0
 10
1431.948711505905
 20
1342.07282457677
 30
0.0
  0
LINE
  5
AF
330
1F
100
AcDbEntity
  8
NECK
  6
Continuous
 62
     7
100
AcDbLine
 10
1431.9487115059
 20
1342.0728245768
 30
0.0
 11
1431.9487115059
 21
1339.9054180884
 31
0.0
  0
LINE
  5
B0
330
1F
100
AcDbEntity
  8
NECK
  6
Continuous
 62
     7
100
AcDbLine
 10
1289.9070393381
 20
1073.0593939121
 30
0.0
 11
1286.8356201972
 21
1071.6271604723
 31
0.0
  0
SPLINE
  5
B1
330
1F
100
AcDbEntity
  8
NECK
  6
Continuous
 62
     7
100
AcDbSpline
210
0.0
220
0.0
230
1.0
 70
     8
 71
     3
 72
    18
 73
    14
 74
     0
 42
0.0000000017592608
 43
0.0000000001
 40
0.0
 40
0.0
 40
0.0
 40
0.0
 40
0.2499999999999973
 40
0.2499999999999973
 40
0.3749999999999963
 40
0.3749999999999963
 40
0.4999999999999953
 40
0.4999999999999953
 40
0.6249999999999943
 40
0.6249999999999943
 40
0.7499999999999933
 40
0.7499999999999933
 40
1.0
 40
1.0
 40
1.0
 40
1.0
 10
1283.948711505905
 20
1067.095595063079
 30
0.0
 10
1283.948711505905
 20
1067.566321576006
 30
0.0
 10
1284.017018798926
 20
1068.044167342701
 30
0.0
 10
1284.214662894493
 20
1068.721682313276
 30
0.0
 10
1284.296319222155
 20
1068.942610727131
 30
0.0
 10
1284.491898899907
 20
1069.37442454106
 30
0.0
 10
1284.60605925625
 20
1069.584983841787
 30
0.0
 10
1284.859627118481
 20
1069.982652248022
 30
0.0
 10
1284.999768406896
 20
1070.171559708085
 30
0.0
 10
1285.306756054879
 20
1070.52952830879
 30
0.0
 10
1285.475098716478
 20
1070.699810947613
 30
0.0
 10
1286.009992928256
 20
1071.168547258805
 30
0.0
 10
1286.40389211587
 20
1071.425841317746
 30
0.0
 10
1286.835620197201
 20
1071.627160472348
 30
0.0
  0
SPLINE
  5
B2
330
1F
100
AcDbEntity
  8
NECK
  6
Continuous
 62
     7
100
AcDbSpline
210
0.0
220
0.0
230
1.0
 70
     8
 71
     3
 72
    16
 73
    12
 74
     0
 42
0.0000000020262971
 43
0.0000000001
 40
0.0
 40
0.0
 40
0.0
 40
0.0
 40
0.25
 40
0.25
 40
0.375
 40
0.375
 40
0.5
 40
0.5
 40
0.75
 40
0.75
 40
1.0
 40
1.0
 40
1.0
 40
1.0
 10
1431.948711505905
 20
1339.905418088418
 30
0.0
 10
1431.948711505905
 20
1339.491377650676
 30
0.0
 10
1431.906312129512
 20
1339.084557948823
 30
0.0
 10
1431.781664202205
 20
1338.484725193155
 30
0.0
 10
1431.729858152276
 20
1338.286527693763
 30
0.0
 10
1431.60517165568
 20
1337.893721725427
 30
0.0
 10
1431.532245218578
 20
1337.69947442409
 30
0.0
 10
1431.286844359458
 20
1337.135495005621
 30
0.0
 10
1431.08669517926
 20
1336.779763559717
 30
0.0
 10
1430.613002880241
 20
1336.108974775059
 30
0.0
 10
1430.339242262998
 20
1335.795104065884
 30
0.0
 10
1430.036139007089
 20
1335.513043962844
 30
0.0
  0
LINE
  5
B3
330
1F
100
AcDbEntity
  8
NECK
  6
Continuous
 62
     7
100
AcDbLine
 10
1283.9487115059
 20
1056.2808444017
 30
0.0
 11
1283.9487115059
 21
1067.0955950631
 31
0.0
  0
SPLINE
  5
B4
330
1F
100
AcDbEntity
  8
NECK
  6
Continuous
 62
     7
100
AcDbSpline
210
0.0
220
0.0
230
1.0
 70
     8
 71
     3
 72
    18
 73
    14
 74
     0
 42
0.0000000000327458
 43
0.0000000001
 40
0.0
 40
0.0
 40
0.0
 40
0.0
 40
0.2500000000000002
 40
0.2500000000000002
 40
0.3750000000000003
 40
0.3750000000000003
 40
0.5000000000000003
 40
0.5000000000000003
 40
0.7500000000000004
 40
0.7500000000000004
 40
0.8750000000000002
 40
0.8750000000000002
 40
1.0
 40
1.0
 40
1.0
 40
1.0
 10
1304.318474524439
 20
1065.771797429769
 30
0.0
 10
1305.622864708454
 20
1091.359464948601
 30
0.0
 10
1309.36563138803
 20
1116.41465817442
 30
0.0
 10
1318.498140304654
 20
1153.229135297786
 30
0.0
 10
1322.132432472523
 20
1165.371761159219
 30
0.0
 10
1330.608660969154
 20
1189.393296646324
 30
0.0
 10
1335.473944891553
 20
1201.309731431274
 30
0.0
 10
1351.594634721851
 20
1235.912438111761
 30
0.0
 10
1364.424806885867
 20
1257.696937153637
 30
0.0
 10
1386.758437878574
 20
1288.470038309678
 30
0.0
 10
1394.727023915494
 20
1298.414913574348
 30
0.0
 10
1411.714426562519
 20
1317.615475362021
 30
0.0
 10
1420.652994519894
 20
1326.781330761833
 30
0.0
 10
1430.036139007089
 20
1335.513043962844
 30
0.0
  0
LINE
  5
B5
330
1F
100
AcDbEntity
  8
NECK
  6
Continuous
 62
     7
100
AcDbLine
 10
1283.9487115059
 20
1056.2808444017
 30
0.0
 11
1294.3314778479
 21
1056.2808444017
 31
0.0
  0
ARC
  5
B6
330
1F
100
AcDbEntity
  8
NECK
  6
HIDDEN2
 62
     7
100
AcDbCircle
 10
1520.3906616185
 20
923.6308945382
 30
0.0
 40
229.7777076728486
100
AcDbArc
 50
201.3173306454
 51
245.0359364954
  0
ARC
  5
B7
330
1F
100
AcDbEntity
  8
NECK
  6
HIDDEN2
 62
     7
100
AcDbCircle
 10
1520.38892905
 20
1138.9339834102
 30
0.0
 40
229.7745943843346
100
AcDbArc
 50
114.9652337171
 51
158.6757083158
  0
ARC
  5
B8
330
1F
100
AcDbEntity
  8
NECK
  6
HIDDEN2
 62
     7
100
AcDbCircle
 10
1699.5699964352
 20
1017.0807295046
 30
0.0
 40
395.7422435646965
100
AcDbArc
 50
182.9318517651
 51
184.5168714521
  0
ARC
  5
B9
330
1F
100
AcDbEntity
  8
NECK
  6
HIDDEN2
 62
     7
100
AcDbCircle
 10
1699.5699964352
 20
1017.0807295046
 30
0.0
 40
395.7422435646965
100
AcDbArc
 50
197.5685205926
 51
227.0724456242
  0
ARC
  5
BA
330
1F
100
AcDbEntity
  8
NECK
  6
HIDDEN2
 62
     7
100
AcDbCircle
 10
1699.570379526
 20
1045.481541058
 30
0.0
 40
395.7426720252708
100
AcDbArc
 50
132.9265776208
 51
169.8589866693
  0
ARC
  5
BB
330
1F
100
AcDbEntity
  8
NECK
  6
HIDDEN2
 62
     7
100
AcDbCircle
 10
1699.570379526
 20
1045.481541058
 30
0.0
 40
395.7426720252708
100
AcDbArc
 50
176.0839026527
 51
177.0686378908
  0
ARC
  5
BC
330
1F
100
AcDbEntity
  8
NECK
  6
Continuous
 62
     7
100
AcDbCircle
 10
1290.9487115059
 20
936.7991013482
 30
0.0
 40
3.000000000000003
100
AcDbArc
 50
295.0
 51
360.0
  0
LINE
  5
BD
330
1F
100
AcDbEntity
  8
NECK
  6
HIDDEN2
 62
     7
100
AcDbLine
 10
1286.8356201972
 20
913.1909975969
 30
0.0
 11
1292.2165662911
 21
915.7001739687
 31
0.0
  0
LINE
  5
BE
330
1F
100
AcDbEntity
  8
NECK
  6
Continuous
 62
     7
100
AcDbLine
 10
1292.2165662911
 20
934.0801779871
 30
0.0
 11
1286.8356201972
 21
931.5710016154
 31
0.0
  0
LINE
  5
BF
330
1F
100
AcDbEntity
  8
NECK
  6
HIDDEN2
 62
     7
100
AcDbLine
 10
1299.9487115059
 20
914.2811820757
 30
0.0
 11
1283.9487115059
 21
914.2811820757
 31
0.0
  0
LINE
  5
C0
330
1F
100
AcDbEntity
  8
NECK
  6
HIDDEN2
 62
     7
100
AcDbLine
 10
1283.9487115059
 20
898.2811820757
 30
0.0
 11
1299.9487115059
 21
898.2811820757
 31
0.0
  0
ARC
  5
C1
330
1F
100
AcDbEntity
  8
NECK
  6
Continuous
 62
     7
100
AcDbCircle
 10
1288.9487115059
 20
927.0394626802
 30
0.0
 40
4.999999999999998
100
AcDbArc
 50
115.0
 51
180.0
  0
ARC
  5
C2
330
1F
100
AcDbEntity
  8
NECK
  6
HIDDEN2
 62
     7
100
AcDbCircle
 10
1288.9487115059
 20
908.6594586618
 30
0.0
 40
5.000000000000004
100
AcDbArc
 50
115.0
 51
180.0
  0
ARC
  5
C3
330
1F
100
AcDbEntity
  8
NECK
  6
HIDDEN2
 62
     7
100
AcDbCircle
 10
1290.9487115059
 20
918.4190973298
 30
0.0
 40
2.999999999999994
100
AcDbArc
 50
295.0
 51
360.0
  0
HATCH
  5
C4
330
1F
100
AcDbEntity
  8
NECK
  6
Continuous
 62
     7
100
AcDbHatch
 10
0.0
 20
0.0
 30
0.0
210
0.0
220
0.0
230
1.0
  2
LINE
 70
     0
 71
     0
 91
        1
 92
        1
 93
       29
 72
     1
 10
1297.948711505905
 20
1185.282589205972
 11
1286.948711505905
 21
1185.282589205972
 72
     1
 10
1286.948711505905
 20
1185.282589205972
 11
1286.948711505905
 21
1183.282237369251
 72
     1
 10
1286.948711505905
 20
1183.282237369251
 11
1283.948711505905
 21
1183.282237369251
 72
     1
 10
1283.948711505905
 20
1183.282237369251
 11
1283.948711505905
 21
1179.466316790027
 72
     4
 94
        3
 73
     0
 74
     0
 95
       18
 96
       14
 40
0.0
 40
0.0
 40
0.0
 40
0.0
 40
0.2499999999999949
 40
0.2499999999999949
 40
0.3749999999999973
 40
0.3749999999999973
 40
0.4999999999999998
 40
0.4999999999999998
 40
0.6250000000000022
 40
0.6250000000000022
 40
0.7500000000000047
 40
0.7500000000000047
 40
1.0
 40
1.0
 40
1.0
 40
1.0
 10
1283.948711505905
 20
1179.466316790027
 10
1283.948711505905
 20
1178.989512382171
 10
1284.017679984786
 20
1178.514540297575
 10
1284.215512947018
 20
1177.837792861104
 10
1284.297250568098
 20
1177.61694121047
 10
1284.493185576343
 20
1177.184961119244
 10
1284.607129912485
 20
1176.975100224681
 10
1284.860441502471
 20
1176.578141101696
 10
1285.000508451947
 20
1176.389407158533
 10
1285.307580359984
 20
1176.031514585839
 10
1285.476093003027
 20
1175.861181277798
 10
1286.009922878654
 20
1175.39353830238
 10
1286.403489152543
 20
1175.13626369769
 10
1286.835620350247
 20
1174.93475657966
 72
     1
 10
1286.835620350247
 20
1174.93475657966
 11
1292.216566186936
 21
1172.425566648945
 72
     4
 94
        3
 73
     0
 74
     0
 95
       16
 96
       12
 40
0.0
 40
0.0
 40
0.0
 40
0.0
 40
0.2499999999999878
 40
0.2499999999999878
 40
0.3749999999999898
 40
0.3749999999999898
 40
0.4999999999999919
 40
0.4999999999999919
 40
0.7499999999999959
 40
0.7499999999999959
 40
1.0
 40
1.0
 40
1.0
 40
1.0
 10
1292.216566186936
 20
1172.425566648945
 10
1292.475845183162
 20
1172.304662165267
 10
1292.711985143411
 20
1172.150297094233
 10
1293.032283247832
 20
1171.869710713965
 10
1293.133390858016
 20
1171.767510521763
 10
1293.317634007208
 20
1171.552774553483
 10
1293.401674160267
 20
1171.439533964602
 10
1293.629654496149
 20
1171.082270061109
 10
1293.749064438763
 20
1170.819091288954
 10
1293.90733053999
 20
1170.2776925332
 10
1293.948711505905
 20
1169.992708904263
 10
1293.948711505905
 20
1169.706625932425
 72
     1
 10
1293.948711505905
 20
1169.706625932425
 11
1293.948711505905
 21
1150.169740716155
 72
     4
 94
        3
 73
     0
 74
     0
 95
       14
 96
       10
 40
0.0
 40
0.0
 40
0.0
 40
0.0
 40
0.25
 40
0.25
 40
0.5
 40
0.5
 40
0.75
 40
0.75
 40
1.0
 40
1.0
 40
1.0
 40
1.0
 10
1293.948711505905
 20
1150.169740716155
 10
1293.948711505905
 20
1149.280829388927
 10
1293.919195885747
 20
1148.391521646985
 10
1293.869853199167
 20
1146.613036286922
 10
1293.85069357812
 20
1145.723867681331
 10
1293.850761534374
 20
1143.945890378499
 10
1293.869979805
 20
1143.05708864578
 10
1293.919318006294
 20
1141.2795913987
 10
1293.948711505905
 20
1140.390710291095
 10
1293.948711505905
 20
1139.505359719307
 72
     1
 10
1293.948711505905
 20
1139.505359719307
 11
1293.948711505905
 21
1079.403575059848
 72
     4
 94
        3
 73
     0
 74
     0
 95
       20
 96
       16
 40
0.0
 40
0.0
 40
0.0
 40
0.0
 40
0.1249999999999986
 40
0.1249999999999986
 40
0.2499999999999972
 40
0.2499999999999972
 40
0.3749999999999958
 40
0.3749999999999958
 40
0.4999999999999944
 40
0.4999999999999944
 40
0.7499999999999972
 40
0.7499999999999972
 40
0.8749999999999986
 40
0.8749999999999986
 40
1.0
 40
1.0
 40
1.0
 40
1.0
 10
1293.948711505905
 20
1079.403575059848
 10
1293.948711505905
 20
1079.074658154984
 10
1293.925646391578
 20
1078.74603117525
 10
1293.832232644478
 20
1078.089371562728
 10
1293.76156232003
 20
1077.762315768445
 10
1293.577191230625
 20
1077.129384203854
 10
1293.463195444381
 20
1076.820878245796
 10
1293.191508389374
 20
1076.219813349804
 10
1293.032257572571
 20
1075.92502373277
 10
1292.498675745202
 20
1075.08650729302
 10
1292.071163762252
 20
1074.586423586878
 10
1291.320272386069
 20
1073.926279044479
 10
1291.055437281326
 20
1073.725084817606
 10
1290.499678829022
 20
1073.361959640469
 10
1290.206635056462
 20
1073.199098365562
 10
1289.90703933809
 20
1073.059393912053
 72
     1
 10
1289.90703933809
 20
1073.059393912053
 11
1286.835620197201
 21
1071.627160472348
 72
     4
 94
        3
 73
     0
 74
     0
 95
       18
 96
       14
 40
0.0
 40
0.0
 40
0.0
 40
0.0
 40
0.2500000000000067
 40
0.2500000000000067
 40
0.3750000000000057
 40
0.3750000000000057
 40
0.5000000000000047
 40
0.5000000000000047
 40
0.6250000000000037
 40
0.6250000000000037
 40
0.7500000000000027
 40
0.7500000000000027
 40
1.0
 40
1.0
 40
1.0
 40
1.0
 10
1286.835620197201
 20
1071.627160472348
 10
1286.40389211587
 20
1071.425841317746
 10
1286.009992928256
 20
1071.168547258805
 10
1285.475098716478
 20
1070.699810947613
 10
1285.306756054879
 20
1070.52952830879
 10
1284.999768406896
 20
1070.171559708085
 10
1284.859627118481
 20
1069.982652248022
 10
1284.60605925625
 20
1069.584983841787
 10
1284.491898899907
 20
1069.37442454106
 10
1284.296319222155
 20
1068.942610727131
 10
1284.214662894493
 20
1068.721682313276
 10
1284.017018798926
 20
1068.044167342701
 10
1283.948711505905
 20
1067.566321576006
 10
1283.948711505905
 20
1067.095595063079
 72
     1
 10
1283.948711505905
 20
1067.095595063079
 11
1283.948711505905
 21
1056.280844401733
 72
     1
 10
1283.948711505905
 20
1056.280844401733
 11
1294.331477847918
 21
1056.280844401733
 72
     4
 94
        3
 73
     0
 74
     0
 95
       28
 96
       24
 40
0.0
 40
0.0
 40
0.0
 40
0.0
 40
0.0625000000000028
 40
0.0625000000000028
 40
0.1250000000000056
 40
0.1250000000000056
 40
0.2500000000000056
 40
0.2500000000000056
 40
0.3125000000000031
 40
0.3125000000000031
 40
0.3750000000000006
 40
0.3750000000000006
 40
0.5
 40
0.5
 40
0.6249999999999996
 40
0.6249999999999996
 40
0.7499999999999991
 40
0.7499999999999991
 40
0.8125
 40
0.8125
 40
0.8750000000000009
 40
0.8750000000000009
 40
1.0
 40
1.0
 40
1.0
 40
1.0
 10
1294.331477847919
 20
1056.280844401733
 10
1294.650899931234
 20
1056.280844401733
 10
1294.969018056501
 20
1056.296113991193
 10
1295.602674239172
 20
1056.356866241068
 10
1295.919333079274
 20
1056.402583531248
 10
1296.857012902306
 20
1056.584091938249
 10
1297.461868363585
 20
1056.76255511864
 10
1298.339662652953
 20
1057.113862486535
 10
1298.62731251512
 20
1057.244995126239
 10
1299.192460806517
 20
1057.536043697016
 10
1299.469889458225
 20
1057.69617077818
 10
1300.269121307693
 20
1058.209601549788
 10
1300.764409705081
 20
1058.598641922396
 10
1301.680381864596
 20
1059.4696547562
 10
1302.102520655628
 20
1059.955632460022
 10
1302.8359951781
 20
1060.982685342755
 10
1303.15238497142
 20
1061.527566170338
 10
1303.55008199045
 20
1062.392769973242
 10
1303.669930797693
 20
1062.690186313981
 10
1303.878607943066
 20
1063.288881383554
 10
1303.968169318081
 20
1063.591527452093
 10
1304.193377305636
 20
1064.50917030606
 10
1304.285950216317
 20
1065.133781909033
 10
1304.318474524439
 20
1065.771797429769
 72
     4
 94
        3
 73
     0
 74
     0
 95
       32
 96
       28
 40
0.0
 40
0.0
 40
0.0
 40
0.0
 40
0.1250000000000008
 40
0.1250000000000008
 40
0.2500000000000017
 40
0.2500000000000017
 40
0.3750000000000026
 40
0.3750000000000026
 40
0.4062500000000028
 40
0.4062500000000028
 40
0.4218750000000028
 40
0.4218750000000028
 40
0.4375000000000028
 40
0.4375000000000028
 40
0.5000000000000024
 40
0.5000000000000024
 40
0.625000000000002
 40
0.625000000000002
 40
0.7500000000000016
 40
0.7500000000000016
 40
0.812500000000001
 40
0.812500000000001
 40
0.8437500000000008
 40
0.8437500000000008
 40
0.8750000000000006
 40
0.8750000000000006
 40
1.0
 40
1.0
 40
1.0
 40
1.0
 10
1304.318474524439
 20
1065.771797429769
 10
1304.970669616446
 20
1078.565631189185
 10
1306.236560147895
 20
1091.225450760949
 10
1309.956384271826
 20
1116.285654009265
 10
1312.409801026905
 20
1128.686150548875
 10
1318.498140304654
 20
1153.229135297786
 10
1322.132432472523
 20
1165.371761159219
 10
1327.430075282918
 20
1180.38522083866
 10
1328.527419360252
 20
1183.379654907156
 10
1330.23068938711
 20
1187.85880333209
 10
1330.80798984391
 20
1189.349768708019
 10
1331.981784713586
 20
1192.327508028319
 10
1332.578700001417
 20
1193.815301737024
 10
1335.605383357291
 20
1201.228713848561
 10
1338.160726529936
 20
1207.076849211355
 10
1346.221071445085
 20
1224.378202551599
 10
1352.118891375589
 20
1235.589290648282
 10
1364.943120518044
 20
1257.377452919473
 10
1371.869350550103
 20
1267.954637538984
 10
1383.036166046456
 20
1283.341188117005
 10
1386.88830973199
 20
1288.389986373838
 10
1392.863914592482
 20
1295.841514607994
 10
1394.88870040158
 20
1298.305067264359
 10
1399.004777641517
 20
1303.191179062137
 10
1401.097299908129
 20
1305.615124244726
 10
1411.714426562519
 20
1317.615475362021
 10
1420.652994519894
 20
1326.781330761833
 10
1430.036139007089
 20
1335.513043962844
 72
     4
 94
        3
 73
     0
 74
     0
 95
       16
 96
       12
 40
0.0
 40
0.0
 40
0.0
 40
0.0
 40
0.25
 40
0.25
 40
0.5
 40
0.5
 40
0.625
 40
0.625
 40
0.75
 40
0.75
 40
1.0
 40
1.0
 40
1.0
 40
1.0
 10
1430.036139007089
 20
1335.513043962844
 10
1430.339242262998
 20
1335.795104065884
 10
1430.613002880241
 20
1336.108974775059
 10
1431.08669517926
 20
1336.779763559717
 10
1431.286844359458
 20
1337.135495005621
 10
1431.532245218578
 20
1337.69947442409
 10
1431.60517165568
 20
1337.893721725427
 10
1431.729858152276
 20
1338.286527693763
 10
1431.781664202205
 20
1338.484725193155
 10
1431.906312129512
 20
1339.084557948823
 10
1431.948711505905
 20
1339.491377650676
 10
1431.948711505905
 20
1339.905418088418
 72
     1
 10
1431.948711505905
 20
1339.905418088418
 11
1431.948711505905
 21
1342.072824576769
 72
     4
 94
        3
 73
     0
 74
     0
 95
       29
 96
       25
 40
0.0
 40
0.0
 40
0.0
 40
0.0
 40
0.1250000000000068
 40
0.1250000000000068
 40
0.1875000000000102
 40
0.1875000000000102
 40
0.2500000000000135
 40
0.2500000000000135
 40
0.3125000000000169
 40
0.3125000000000169
 40
0.3750000000000201
 40
0.3750000000000201
 40
0.5000000000000167
 40
0.5000000000000167
 40
0.6250000000000132
 40
0.6250000000000132
 40
0.6875000000000114
 40
0.6875000000000114
 40
0.7500000000000097
 40
0.8125000000000079
 40
0.8125000000000079
 40
0.8750000000000061
 40
0.8750000000000061
 40
1.0
 40
1.0
 40
1.0
 40
1.0
 10
1431.948711505905
 20
1342.07282457677
 10
1431.948711505905
 20
1342.579319521985
 10
1431.885586645722
 20
1343.075621347038
 10
1431.698665147204
 20
1343.805180517092
 10
1431.620104041696
 20
1344.047267456579
 10
1431.435197563527
 20
1344.514461370209
 10
1431.328781387999
 20
1344.740630886361
 10
1431.088537862421
 20
1345.178388825847
 10
1430.954711589002
 20
1345.389977821884
 10
1430.658856586949
 20
1345.798153807503
 10
1430.497301663411
 20
1345.993666311901
 10
1429.983707622798
 20
1346.54154534759
 10
1429.598189089676
 20
1346.86209570875
 10
1428.744991808259
 20
1347.40542478662
 10
1428.293143860306
 20
1347.618545714149
 10
1427.578476382026
 20
1347.852680239036
 10
1427.332252237901
 20
1347.916546354955
 10
1426.838389888044
 20
1348.01182637401
 10
1426.342314181951
 20
1348.075455983728
 10
1425.841907697877
 20
1348.077156612615
 10
1425.339280604012
 20
1348.047103108253
 10
1425.087133880485
 20
1348.015926086958
 10
1424.348577422035
 20
1347.877183260308
 10
1423.872588124785
 20
1347.724927889218
 10
1423.413527164052
 20
1347.510918150353
 72
     4
 94
        3
 73
     0
 74
     0
 95
       28
 96
       24
 40
0.0
 40
0.0
 40
0.0
 40
0.0
 40
0.125
 40
0.125
 40
0.1875
 40
0.1875
 40
0.2500000000000001
 40
0.2500000000000001
 40
0.3750000000000001
 40
0.3750000000000001
 40
0.5000000000000002
 40
0.5000000000000002
 40
0.6249999999999997
 40
0.6249999999999997
 40
0.6562499999999997
 40
0.6562499999999997
 40
0.6874999999999997
 40
0.6874999999999997
 40
0.7499999999999996
 40
0.7499999999999996
 40
0.8749999999999998
 40
0.8749999999999998
 40
1.0
 40
1.0
 40
1.0
 40
1.0
 10
1423.413527164052
 20
1347.510918150353
 10
1416.744897447903
 20
1344.402068071141
 10
1410.247612166567
 20
1340.984607640715
 10
1400.75724602494
 20
1335.398121853973
 10
1397.636419012587
 20
1333.459181500986
 10
1391.480644041974
 20
1329.426623083567
 10
1388.460627234892
 20
1327.34261374793
 10
1379.585074775229
 20
1320.901172859177
 10
1373.907009018639
 20
1316.35083220121
 10
1363.019159727681
 20
1306.748403695982
 10
1357.809142645736
 20
1301.696566086368
 10
1347.85988799201
 20
1291.088467925606
 10
1343.120489161021
 20
1285.532380157772
 10
1337.500112519235
 20
1278.261682879279
 10
1336.391755420301
 20
1276.791715468798
 10
1334.216506324064
 20
1273.833742895027
 10
1333.148219921685
 20
1272.343957494914
 10
1330.00087875228
 20
1267.842481162148
 10
1327.979298251549
 20
1264.798694540606
 10
1322.142150027774
 20
1255.540238437463
 10
1318.553782509725
 20
1249.198692223627
 10
1311.981508762057
 20
1236.178046962141
 10
1308.997929847896
 20
1229.498765129815
 10
1306.324431319947
 20
1222.646323303493
 72
     4
 94
        3
 73
     0
 74
     0
 95
       22
 96
       18
 40
0.0
 40
0.0
 40
0.0
 40
0.0
 40
0.2500000000000147
 40
0.2500000000000147
 40
0.3125000000000176
 40
0.3125000000000176
 40
0.3750000000000205
 40
0.3750000000000205
 40
0.5000000000000164
 40
0.5000000000000164
 40
0.6250000000000123
 40
0.6250000000000123
 40
0.7500000000000082
 40
0.7500000000000082
 40
0.8750000000000042
 40
0.8750000000000042
 40
1.0
 40
1.0
 40
1.0
 40
1.0
 10
1306.324431319947
 20
1222.646323303493
 10
1305.958217699233
 20
1221.707681480535
 10
1305.462517002096
 20
1220.846776534893
 10
1304.683805509379
 20
1219.86615155907
 10
1304.519328284743
 20
1219.674327731766
 10
1304.179152523737
 20
1219.306582514364
 10
1304.003010796428
 20
1219.130003900205
 10
1303.456805246495
 20
1218.621690784692
 10
1303.069058338449
 20
1218.3112617991
 10
1302.245965322155
 20
1217.74775385966
 10
1301.807366984811
 20
1217.493597760247
 10
1300.90898482936
 20
1217.059609826031
 10
1300.446819337884
 20
1216.877573939813
 10
1299.496771787127
 20
1216.582792531849
 10
1299.005815429675
 20
1216.469647882934
 10
1298.012381128839
 20
1216.318852326721
 10
1297.512148957173
 20
1216.280999550366
 10
1297.008372949924
 20
1216.280999550366
 72
     1
 10
1297.008372949924
 20
1216.280999550366
 11
1288.948711505905
 21
1216.280999550366
 72
     4
 94
        3
 73
     0
 74
     0
 95
       24
 96
       20
 40
0.0
 40
0.0
 40
0.0
 40
0.0
 40
0.124999999999999
 40
0.124999999999999
 40
0.2499999999999981
 40
0.2499999999999981
 40
0.3749999999999971
 40
0.3749999999999971
 40
0.499999999999996
 40
0.499999999999996
 40
0.624999999999995
 40
0.624999999999995
 40
0.749999999999994
 40
0.749999999999994
 40
0.8124999999999954
 40
0.8124999999999954
 40
0.874999999999997
 40
0.874999999999997
 40
1.0
 40
1.0
 40
1.0
 40
1.0
 10
1288.948711505905
 20
1216.280999550366
 10
1288.618575085752
 20
1216.280999550366
 10
1288.292036489098
 20
1216.248619499047
 10
1287.646103630765
 20
1216.119561096863
 10
1287.331767195156
 20
1216.023509511725
 10
1286.730630539988
 20
1215.773884812131
 10
1286.439810650145
 20
1215.618433677009
 10
1285.893817295169
 20
1215.252841656216
 10
1285.642347601914
 20
1215.045863369618
 10
1285.181471753544
 20
1214.584654841101
 10
1284.970498336298
 20
1214.32737576673
 10
1284.608059546092
 20
1213.784062779905
 10
1284.454648559227
 20
1213.496995174126
 10
1284.266628470587
 20
1213.04306441066
 10
1284.210826909005
 20
1212.887020361843
 10
1284.11576181713
 20
1212.573073822348
 10
1284.076227780216
 20
1212.414738385292
 10
1283.981087190546
 20
1211.935736514839
 10
1283.948711505905
 20
1211.611113802968
 10
1283.948711505905
 20
1211.280977426106
 72
     1
 10
1283.948711505905
 20
1211.280977426106
 11
1283.948711505905
 21
1199.280126782114
 72
     1
 10
1283.948711505905
 20
1199.280126782114
 11
1286.948711505905
 21
1199.280126782114
 72
     1
 10
1286.948711505905
 20
1199.280126782114
 11
1286.948711505905
 21
1197.279774945394
 72
     1
 10
1286.948711505905
 20
1197.279774945394
 11
1297.948711505905
 21
1197.279774945394
 72
     1
 10
1297.948711505905
 20
1197.279774945394
 11
1297.948711505905
 21
1185.282589205972
 97
        0
 75
     0
 76
     2
 52
45.0
 41
1.0
 77
     0
 78
     1
 53
45.0
 43
0.0
 44
0.0
 45
-2.245064030267288
 46
2.245064030267288
 79
     0
 98
        0
  0
HATCH
  5
C5
330
1F
100
AcDbEntity
  8
NECK
  6
Continuous
 62
     7
100
AcDbHatch
 10
0.0
 20
0.0
 30
0.0
210
0.0
220
0.0
230
1.0
  2
LINE
 70
     0
 71
     0
 91
        1
 92
        1
 93
       29
 72
     1
 10
1286.948711505905
 20
877.2797749453941
 11
1297.948711505905
 21
877.2797749453941
 72
     1
 10
1297.948711505905
 20
877.2797749453941
 11
1297.948711505905
 21
865.2825892059719
 72
     1
 10
1297.948711505905
 20
865.2825892059719
 11
1286.948711505905
 21
865.2825892059718
 72
     1
 10
1286.948711505905
 20
865.2825892059718
 11
1286.948711505905
 21
863.2822373692513
 72
     1
 10
1286.948711505905
 20
863.2822373692513
 11
1283.948711505905
 21
863.2822373692513
 72
     1
 10
1283.948711505905
 20
863.2822373692513
 11
1283.948711505905
 21
851.28138672526
 72
     4
 94
        3
 73
     0
 74
     0
 95
       24
 96
       20
 40
0.0
 40
0.0
 40
0.0
 40
0.0
 40
0.1250000000000011
 40
0.1250000000000011
 40
0.2500000000000022
 40
0.2500000000000022
 40
0.3750000000000032
 40
0.3750000000000032
 40
0.5000000000000043
 40
0.5000000000000043
 40
0.6250000000000053
 40
0.6250000000000053
 40
0.7500000000000063
 40
0.7500000000000063
 40
0.8125000000000069
 40
0.8125000000000069
 40
0.8750000000000073
 40
0.8750000000000073
 40
1.0
 40
1.0
 40
1.0
 40
1.0
 10
1283.948711505905
 20
851.2813867252601
 10
1283.948711505905
 20
850.9512503719811
 10
1283.981091098882
 20
850.6247118972467
 10
1284.110147609608
 20
849.9787793848759
 10
1284.206198184182
 20
849.6644417610577
 10
1284.455820051425
 20
849.0633039099909
 10
1284.611269056712
 20
848.7724839541492
 10
1284.976858173191
 20
848.2264876165842
 10
1285.183834935397
 20
847.975016464204
 10
1285.645040263506
 20
847.5141377511088
 10
1285.902317815299
 20
847.3031627107118
 10
1286.445628926157
 20
846.940720375603
 10
1286.732695692662
 20
846.7873077991785
 10
1287.1866253718
 20
846.5992856484646
 10
1287.342669155963
 20
846.5434834217052
 10
1287.65661547255
 20
846.4484171150397
 10
1287.814950817423
 20
846.4088825670699
 10
1288.293952469095
 20
846.3137407340981
 10
1288.618575111019
 20
846.2813646009995
 10
1288.948711505905
 20
846.2813646009995
 72
     1
 10
1288.948711505905
 20
846.2813646009995
 11
1297.008372949914
 21
846.2813646009995
 72
     4
 94
        3
 73
     0
 74
     0
 95
       22
 96
       18
 40
0.0
 40
0.0
 40
0.0
 40
0.0
 40
0.2500000000000103
 40
0.2500000000000103
 40
0.3125000000000107
 40
0.3125000000000107
 40
0.375000000000011
 40
0.375000000000011
 40
0.5000000000000089
 40
0.5000000000000089
 40
0.6250000000000067
 40
0.6250000000000067
 40
0.7500000000000044
 40
0.7500000000000044
 40
0.8750000000000023
 40
0.8750000000000023
 40
1.0
 40
1.0
 40
1.0
 40
1.0
 10
1297.008372949914
 20
846.2813646009995
 10
1298.01592489946
 20
846.2813646009994
 10
1298.998120896202
 20
846.1324773326926
 10
1300.194714075729
 20
845.7634483277747
 10
1300.433200493785
 20
845.6799416326432
 10
1300.899436898328
 20
845.4966943688153
 10
1301.127960336067
 20
845.3967797642968
 10
1301.800035670818
 20
845.0726850844576
 10
1302.230166424948
 20
844.8242873746597
 10
1303.054301061617
 20
844.2623032167753
 10
1303.450490185018
 20
843.9460786914021
 10
1304.1813275727
 20
843.2668791952382
 10
1304.518895064358
 20
842.9024862847618
 10
1305.138826251409
 20
842.1245580003523
 10
1305.422679251074
 20
841.7083034941983
 10
1305.924242247873
 20
840.8376229540081
 10
1306.14132452048
 20
840.3853617314211
 10
1306.324431319943
 20
839.9160408478643
 72
     4
 94
        3
 73
     0
 74
     0
 95
       24
 96
       20
 40
0.0
 40
0.0
 40
0.0
 40
0.0
 40
0.0625
 40
0.0625
 40
0.125
 40
0.125
 40
0.25
 40
0.25
 40
0.3750000000000001
 40
0.3750000000000001
 40
0.5000000000000001
 40
0.5000000000000001
 40
0.6250000000000002
 40
0.6250000000000002
 40
0.7500000000000001
 40
0.7500000000000001
 40
0.875
 40
0.875
 40
1.0
 40
1.0
 40
1.0
 40
1.0
 10
1306.324431319943
 20
839.9160408478643
 10
1307.666451667378
 20
836.4763096251153
 10
1309.091273065705
 20
833.068965040332
 10
1312.102206919574
 20
826.3289225806495
 10
1313.682692879893
 20
823.0087173002746
 10
1318.644677333937
 20
813.1945408376007
 10
1322.245887826675
 20
806.8464681206134
 10
1330.023696176247
 20
794.5324052936809
 10
1334.200028495927
 20
788.5662388553443
 10
1343.132036189342
 20
777.0186153384468
 10
1347.887551330519
 20
771.4370518583953
 10
1357.997987070188
 20
760.6719565793766
 10
1363.26749549285
 20
755.5798636818569
 10
1374.20839895879
 20
745.9615814491847
 10
1379.881545583482
 20
741.4341597309466
 10
1391.627020206853
 20
732.9341262132414
 10
1397.699590493344
 20
728.9618511621552
 10
1410.249025900187
 20
721.5792180194182
 10
1416.726050909462
 20
718.1690821524671
 10
1423.413527164054
 20
715.0514460010038
 72
     4
 94
        3
 73
     0
 74
     0
 95
       29
 96
       25
 40
0.0
 40
0.0
 40
0.0
 40
0.0
 40
0.1249999999999974
 40
0.1249999999999974
 40
0.187499999999996
 40
0.187499999999996
 40
0.2499999999999947
 40
0.2499999999999947
 40
0.3124999999999932
 40
0.3124999999999932
 40
0.3749999999999918
 40
0.3749999999999918
 40
0.4999999999999934
 40
0.4999999999999934
 40
0.6249999999999951
 40
0.6249999999999951
 40
0.6874999999999959
 40
0.6874999999999959
 40
0.7499999999999967
 40
0.8124999999999976
 40
0.8124999999999976
 40
0.8749999999999983
 40
0.8749999999999983
 40
1.0
 40
1.0
 40
1.0
 40
1.0
 10
1423.413527164054
 20
715.0514460010038
 10
1423.872588125321
 20
714.8374362618893
 10
1424.349082801099
 20
714.6849466043511
 10
1425.089297907549
 20
714.5461015529725
 10
1425.341907565758
 20
714.5150161793272
 10
1425.843476738859
 20
714.4852022491007
 10
1426.093429254108
 20
714.4860889038549
 10
1426.591700813251
 20
714.5188672794357
 10
1426.840019921304
 20
714.5507577824143
 10
1427.334977512078
 20
714.646438888316
 10
1427.580441828467
 20
714.7102540343276
 10
1428.294020310355
 20
714.9442538904774
 10
1428.747444127385
 20
715.1582260257841
 10
1429.600391306588
 20
715.7019473659327
 10
1429.984472613324
 20
716.0214291750553
 10
1430.498648830767
 20
716.5702382998791
 10
1430.66057097697
 20
716.7664179023609
 10
1430.955599705193
 20
717.1737707123127
 10
1431.222877366474
 20
717.5965028553702
 10
1431.435855717683
 20
718.0493270730437
 10
1431.620992054557
 20
718.517581025859
 10
1431.699274494983
 20
718.7592871037435
 10
1431.885587838286
 20
719.4872998250636
 10
1431.948711505905
 20
719.9830446289319
 10
1431.948711505905
 20
720.4895395745883
 72
     1
 10
1431.948711505905
 20
720.4895395745883
 11
1431.948711505905
 21
722.6569460629556
 72
     4
 94
        3
 73
     0
 74
     0
 95
       16
 96
       12
 40
0.0
 40
0.0
 40
0.0
 40
0.0
 40
0.2499999999999931
 40
0.2499999999999931
 40
0.4999999999999862
 40
0.4999999999999862
 40
0.6249999999999827
 40
0.6249999999999827
 40
0.7499999999999792
 40
0.7499999999999792
 40
1.0
 40
1.0
 40
1.0
 40
1.0
 10
1431.948711505905
 20
722.6569460629556
 10
1431.948711505905
 20
723.0709864988514
 10
1431.905434875543
 20
723.4852168959108
 10
1431.737073210439
 20
724.288955887449
 10
1431.613005032683
 20
724.6778153040522
 10
1431.367313626226
 20
725.2416682036937
 10
1431.274792854209
 20
725.4273835347693
 10
1431.072175771012
 20
725.7862561752231
 10
1430.962375190861
 20
725.9592011043889
 10
1430.608175402898
 20
726.4590800401287
 10
1430.339242262012
 20
726.7672600864066
 10
1430.036139007093
 20
727.0493201885253
 72
     4
 94
        3
 73
     0
 74
     0
 95
       32
 96
       28
 40
0.0
 40
0.0
 40
0.0
 40
0.0
 40
0.1250000000000007
 40
0.1250000000000007
 40
0.2500000000000013
 40
0.2500000000000013
 40
0.375000000000002
 40
0.375000000000002
 40
0.4062500000000022
 40
0.4062500000000022
 40
0.4218750000000021
 40
0.4218750000000021
 40
0.4375000000000021
 40
0.4375000000000021
 40
0.5000000000000019
 40
0.5000000000000019
 40
0.6250000000000016
 40
0.6250000000000016
 40
0.7500000000000011
 40
0.7500000000000011
 40
0.8125000000000008
 40
0.8125000000000008
 40
0.8437500000000006
 40
0.8437500000000006
 40
0.8750000000000004
 40
0.8750000000000004
 40
1.0
 40
1.0
 40
1.0
 40
1.0
 10
1430.036139007093
 20
727.0493201885253
 10
1420.658110193452
 20
735.7762728751723
 10
1411.777534545297
 20
744.8871385948623
 10
1394.978740009086
 20
763.851575736557
 10
1387.060482603838
 20
773.7051174326432
 10
1372.180865758545
 20
794.1506936631824
 10
1365.219535813851
 20
804.7427509608834
 10
1357.129086019327
 20
818.454530300106
 10
1355.541656487721
 20
821.2205485716809
 10
1353.206928693024
 20
825.4053982464964
 10
1352.436422616628
 20
826.8063188540798
 10
1350.910966507223
 20
829.6201655568236
 10
1350.155506165051
 20
831.0340699228128
 10
1346.424872127951
 20
838.1193637827901
 10
1343.589760563576
 20
843.8370920262104
 10
1335.523868196145
 20
861.1358592088642
 10
1330.731611865879
 20
872.8621765258277
 10
1322.29329913562
 20
896.6945347025834
 10
1318.647793382636
 20
908.8007579857269
 10
1314.046012385729
 20
927.2471475051346
 10
1312.656907118447
 20
933.4439218726927
 10
1310.79348987113
 20
942.8120467518517
 10
1310.209064614356
 20
945.946917935151
 10
1309.114358475851
 20
952.241223524996
 10
1308.603805806492
 20
955.4025051486601
 10
1306.241728465658
 20
971.2502549806959
 10
1304.971023788543
 20
983.9897853316974
 10
1304.318474524785
 20
996.7905667220425
 72
     4
 94
        3
 73
     0
 74
     0
 95
       28
 96
       24
 40
0.0
 40
0.0
 40
0.0
 40
0.0
 40
0.0624999999999994
 40
0.0624999999999994
 40
0.1249999999999988
 40
0.1249999999999988
 40
0.249999999999999
 40
0.249999999999999
 40
0.3124999999999993
 40
0.3124999999999993
 40
0.3749999999999998
 40
0.3749999999999998
 40
0.4999999999999999
 40
0.4999999999999999
 40
0.625
 40
0.625
 40
0.7500000000000002
 40
0.7500000000000002
 40
0.8125000000000001
 40
0.8125000000000001
 40
0.8750000000000001
 40
0.8750000000000001
 40
1.0
 40
1.0
 40
1.0
 40
1.0
 10
1304.318474524785
 20
996.7905667220425
 10
1304.3022123751
 20
997.1095743964172
 10
1304.270767280061
 20
997.4265023378995
 10
1304.177835577027
 20
998.0562431877671
 10
1304.116057784202
 20
998.3701628564932
 10
1303.887051087279
 20
999.2973899805096
 10
1303.678030074872
 20
999.8923777331736
 10
1303.282498430219
 20
1000.751151690103
 10
1303.136894935683
 20
1001.031753531729
 10
1302.817459829898
 20
1001.581353524267
 10
1302.643419508801
 20
1001.850273486258
 10
1302.089974677241
 20
1002.622339633045
 10
1301.676230264192
 20
1003.097185976972
 10
1300.759728957343
 20
1003.967639350016
 10
1300.25289604634
 20
1004.364497396347
 10
1299.18984175578
 20
1005.044748509038
 10
1298.62956365346
 20
1005.33299470536
 10
1297.745239582154
 20
1005.686136626842
 10
1297.442108157531
 20
1005.790691221462
 10
1296.833566458862
 20
1005.968622718114
 10
1296.526753593289
 20
1006.042662044481
 10
1295.598836110865
 20
1006.220864881691
 10
1294.970321836355
 20
1006.281519749632
 10
1294.331477848555
 20
1006.281519749632
 72
     1
 10
1294.331477848555
 20
1006.281519749632
 11
1283.948711505905
 21
1006.281519749632
 72
     1
 10
1283.948711505905
 20
1006.281519749632
 11
1283.948711505905
 21
995.4667690882869
 72
     4
 94
        3
 73
     0
 74
     0
 95
       22
 96
       18
 40
0.0
 40
0.0
 40
0.0
 40
0.0
 40
0.125
 40
0.125
 40
0.25
 40
0.25
 40
0.375
 40
0.375
 40
0.5
 40
0.5
 40
0.625
 40
0.625
 40
0.75
 40
0.75
 40
0.875
 40
0.875
 40
1.0
 40
1.0
 40
1.0
 40
1.0
 10
1283.948711505905
 20
995.4667690882869
 10
1283.948711505905
 20
995.2306720934032
 10
1283.965752436776
 20
994.9915707516282
 10
1284.03266076441
 20
994.5243529823365
 10
1284.082345982467
 20
994.2946737073834
 10
1284.213839748838
 20
993.8430923571624
 10
1284.296168003257
 20
993.6200632222959
 10
1284.492222688113
 20
993.1872488234562
 10
1284.604546793943
 20
992.9801045962834
 10
1284.85684407554
 20
992.583730166271
 10
1284.996818224686
 20
992.3945005940907
 10
1285.305163791354
 20
992.0344402370263
 10
1285.47315343192
 20
991.8644347172625
 10
1285.829445303823
 20
991.5518588890031
 10
1286.019963937287
 20
991.4073653396866
 10
1286.416905968561
 20
991.1486322166928
 10
1286.622694814067
 20
991.034492930701
 10
1286.835620197201
 20
990.9352036790177
 72
     1
 10
1286.835620197201
 20
990.9352036790177
 11
1289.90703933809
 21
989.5029702393126
 72
     4
 94
        3
 73
     0
 74
     0
 95
       22
 96
       18
 40
0.0
 40
0.0
 40
0.0
 40
0.0
 40
0.125
 40
0.125
 40
0.25
 40
0.25
 40
0.375
 40
0.375
 40
0.5
 40
0.5
 40
0.625
 40
0.625
 40
0.75
 40
0.75
 40
0.875
 40
0.875
 40
1.0
 40
1.0
 40
1.0
 40
1.0
 10
1289.90703933809
 20
989.5029702393126
 10
1290.207518142509
 20
989.3628539940257
 10
1290.500109086492
 20
989.2000310580595
 10
1291.052266356366
 20
988.8394430450871
 10
1291.314314218753
 20
988.6406237527133
 10
1291.810338312553
 20
988.2059212794823
 10
1292.04569092507
 20
987.9683104574373
 10
1292.478527022609
 20
987.463646387599
 10
1292.676135312822
 20
987.1970556603345
 10
1293.03355711661
 20
986.6352239660512
 10
1293.191647734132
 20
986.3422295436546
 10
1293.462962509716
 20
985.7420142119562
 10
1293.577070419901
 20
985.4334321378454
 10
1293.76180734219
 20
984.7991697592238
 10
1293.83254789407
 20
984.4711085100199
 10
1293.925610191176
 20
983.8162544590314
 10
1293.948711505905
 20
983.4879529073346
 10
1293.948711505905
 20
983.1587890915177
 72
     1
 10
1293.948711505905
 20
983.1587890915177
 11
1293.948711505905
 21
925.0878876549466
 72
     4
 94
        3
 73
     0
 74
     0
 95
       18
 96
       14
 40
0.0
 40
0.0
 40
0.0
 40
0.0
 40
0.2499999999999994
 40
0.2499999999999994
 40
0.3749999999999992
 40
0.3749999999999992
 40
0.4999999999999989
 40
0.4999999999999989
 40
0.6249999999999987
 40
0.6249999999999987
 40
0.7499999999999983
 40
0.7499999999999983
 40
1.0
 40
1.0
 40
1.0
 40
1.0
 10
1293.948711505905
 20
925.0878876549466
 10
1293.948711505905
 20
923.8661527866753
 10
1293.840237115546
 20
922.6414021103035
 10
1293.692240051469
 20
920.8036060917143
 10
1293.6451760512
 20
920.1909429013059
 10
1293.578578788586
 20
918.9648334789963
 10
1293.559363448594
 20
918.3513782046062
 10
1293.558866628957
 20
917.1233887240985
 10
1293.577603523017
 20
916.5088464016011
 10
1293.643754476497
 20
915.2789765597681
 10
1293.690765369308
 20
914.6648162692048
 10
1293.838992633721
 20
912.8227353241945
 10
1293.948711505905
 20
911.5952872996995
 10
1293.948711505905
 20
910.3617403135172
 72
     1
 10
1293.948711505905
 20
910.3617403135172
 11
1293.948711505905
 21
892.8557094733645
 72
     4
 94
        3
 73
     0
 74
     0
 95
       16
 96
       12
 40
0.0
 40
0.0
 40
0.0
 40
0.0
 40
0.2499999999999823
 40
0.2499999999999823
 40
0.3749999999999853
 40
0.3749999999999853
 40
0.4999999999999882
 40
0.4999999999999882
 40
0.7499999999999941
 40
0.7499999999999941
 40
1.0
 40
1.0
 40
1.0
 40
1.0
 10
1293.948711505905
 20
892.8557094733645
 10
1293.948711505905
 20
892.5696264449565
 10
1293.908607581452
 20
892.2903732184229
 10
1293.78967629402
 20
891.8815029811166
 10
1293.739782282052
 20
891.7466763008146
 10
1293.623031715993
 20
891.4889430361028
 10
1293.555918714504
 20
891.3649187509003
 10
1293.328479078346
 20
891.0073105773664
 10
1293.140424397521
 20
890.7878626400212
 10
1292.716638936407
 20
890.4156173059229
 10
1292.475845227238
 20
890.2576730342364
 10
1292.216566184929
 20
890.1367685198586
 72
     1
 10
1292.216566184929
 20
890.1367685198586
 11
1286.835620353095
 21
887.6275784164179
 72
     4
 94
        3
 73
     0
 74
     0
 95
       18
 96
       14
 40
0.0
 40
0.0
 40
0.0
 40
0.0
 40
0.2499999999999907
 40
0.2499999999999907
 40
0.3749999999999916
 40
0.3749999999999916
 40
0.4999999999999923
 40
0.4999999999999923
 40
0.6249999999999932
 40
0.6249999999999932
 40
0.7499999999999941
 40
0.7499999999999941
 40
1.0
 40
1.0
 40
1.0
 40
1.0
 10
1286.835620353095
 20
887.6275784164178
 10
1286.40348910965
 20
887.4260712642006
 10
1286.002166568258
 20
887.162831333714
 10
1285.472435014431
 20
886.6975256405116
 10
1285.306820015298
 20
886.5301094080868
 10
1284.998120439445
 20
886.1699674679571
 10
1284.856077995665
 20
885.9780071751397
 10
1284.603367138966
 20
885.5806654809228
 10
1284.491512043085
 20
885.3739587099614
 10
1284.296927559202
 20
884.9444040229162
 10
1284.213770752023
 20
884.719693266286
 10
1284.015551573941
 20
884.0382438401485
 10
1283.948711505905
 20
883.5728224197668
 10
1283.948711505905
 20
883.0960179489862
 72
     1
 10
1283.948711505905
 20
883.0960179489862
 11
1283.948711505905
 21
879.2801267821145
 72
     1
 10
1283.948711505905
 20
879.2801267821145
 11
1286.948711505905
 21
879.2801267821145
 72
     1
 10
1286.948711505905
 20
879.2801267821145
 11
1286.948711505905
 21
877.2797749453941
 97
        0
 75
     0
 76
     2
 52
45.0
 41
1.0
 77
     0
 78
     1
 53
45.0
 43
0.0
 44
0.0
 45
-2.245064030267288
 46
2.245064030267288
 79
     0
 98
        0
  0
INSERT
  5
C7
330
1F
100
AcDbEntity
  8
Default
100
AcDbBlockReference
  2
GDimGGroup
 10
0.0
 20
0.0
 30
0.0
  0
INSERT
  5
D1
330
1F
100
AcDbEntity
  8
Default
100
AcDbBlockReference
  2
GDimGGroup1
 10
0.0
 20
0.0
 30
0.0
  0
INSERT
  5
DB
330
1F
100
AcDbEntity
  8
Default
100
AcDbBlockReference
  2
GDimGGroup2
 10
0.0
 20
0.0
 30
0.0
  0
INSERT
  5
E7
330
1F
100
AcDbEntity
  8
Default
100
AcDbBlockReference
  2
GDimGGroup3
 10
0.0
 20
0.0
 30
0.0
  0
INSERT
  5
F1
330
1F
100
AcDbEntity
  8
Default
100
AcDbBlockReference
  2
GDimGGroup4
 10
0.0
 20
0.0
 30
0.0
  0
INSERT
  5
FB
330
1F
100
AcDbEntity
  8
Default
100
AcDbBlockReference
  2
GDimGGroup5
 10
0.0
 20
0.0
 30
0.0
  0
INSERT
  5
105
330
1F
100
AcDbEntity
  8
Default
100
AcDbBlockReference
  2
GDimGGroup6
 10
0.0
 20
0.0
 30
0.0
  0
LINE
  5
10F
330
1F
100
AcDbEntity
  8
NECK
  6
Continuous
 62
     7
100
AcDbLine
 10
651.0211136288
 20
413.4192580319
 30
0.0
 11
476.0211133146
 21
413.4192580319
 31
0.0
  0
LINE
  5
110
330
1F
100
AcDbEntity
  8
NECK
  6
Continuous
 62
     7
100
AcDbLine
 10
471.0211119061
 20
408.4192580319
 30
0.0
 11
656.0211119068
 21
408.4192580319
 31
0.0
  0
SPLINE
  5
111
330
1F
100
AcDbEntity
  8
NECK
  6
Continuous
 62
     7
100
AcDbSpline
210
0.0
220
0.0
230
1.0
 70
     8
 71
     3
 72
    58
 73
    54
 74
     0
 42
0.0000000000270258
 43
0.0000000001
 40
0.2498833586021913
 40
0.2498833586021913
 40
0.2498833586021913
 40
0.2498833586021913
 40
0.2499999999999989
 40
0.2499999999999989
 40
0.3124999999999987
 40
0.3124999999999987
 40
0.3437499999999986
 40
0.3437499999999986
 40
0.3749999999999985
 40
0.3749999999999985
 40
0.3906249999999984
 40
0.3906249999999984
 40
0.4062499999999984
 40
0.4062499999999984
 40
0.4218749999999984
 40
0.4218749999999984
 40
0.4374999999999984
 40
0.4374999999999984
 40
0.4531249999999984
 40
0.4531249999999984
 40
0.4687499999999984
 40
0.4687499999999984
 40
0.4765624999999985
 40
0.4765624999999985
 40
0.4843749999999985
 40
0.4843749999999985
 40
0.4921874999999986
 40
0.4921874999999986
 40
0.4999999999999986
 40
0.4999999999999986
 40
0.5156249999999986
 40
0.5156249999999986
 40
0.5234374999999986
 40
0.5234374999999986
 40
0.5312499999999986
 40
0.5312499999999986
 40
0.5390624999999986
 40
0.5390624999999986
 40
0.5468749999999984
 40
0.5468749999999984
 40
0.5624999999999986
 40
0.5624999999999986
 40
0.5781249999999986
 40
0.5781249999999986
 40
0.5937499999999987
 40
0.5937499999999987
 40
0.6249999999999988
 40
0.6249999999999988
 40
0.6562499999999989
 40
0.6562499999999989
 40
0.687499999999999
 40
0.687499999999999
 40
0.7498834706845949
 40
0.7498834706845949
 40
0.7498834706845949
 40
0.7498834706845949
 10
471.0211112244565
 20
400.4584351857492
 30
0.0
 10
471.0211120289923
 20
400.4584351541051
 30
0.0
 10
471.0211176656739
 20
400.4584350073464
 30
0.0
 10
471.0267372601029
 20
400.4582943745648
 30
0.0
 10
472.4197047192372
 20
400.4252078613798
 30
0.0
 10
476.7247839613262
 20
400.348527079596
 30
0.0
 10
478.5344288017159
 20
400.3183053819675
 30
0.0
 10
483.0218771271918
 20
400.2518671649947
 30
0.0
 10
485.6963686912863
 20
400.2160895419391
 30
0.0
 10
490.5425073227791
 20
400.1635791387161
 30
0.0
 10
492.2972229377245
 20
400.1464378965776
 30
0.0
 10
496.0893666708668
 20
400.1149214751756
 30
0.0
 10
498.1307506470336
 20
400.1005579447927
 30
0.0
 10
502.5579489385937
 20
400.0771027344224
 30
0.0
 10
504.9532876597027
 20
400.0680764903067
 30
0.0
 10
510.1090702379907
 20
400.0591266736837
 30
0.0
 10
512.8686920633642
 20
400.0592741484764
 30
0.0
 10
518.8409653234861
 20
400.0727039706475
 30
0.0
 10
522.0517720307628
 20
400.0861388285811
 30
0.0
 10
529.0832743046324
 20
400.1297216939043
 30
0.0
 10
532.8262246444588
 20
400.1597159950391
 30
0.0
 10
538.8638117775724
 20
400.2124874192046
 30
0.0
 10
540.9608643843825
 20
400.2313585199592
 30
0.0
 10
545.2647079916366
 20
400.2687665679161
 30
0.0
 10
547.4550671601211
 20
400.2871016523977
 30
0.0
 10
551.9180937666929
 20
400.3195655857142
 30
0.0
 10
554.1907384980027
 20
400.3337336875042
 30
0.0
 10
558.8259070279526
 20
400.3537875827967
 30
0.0
 10
561.2035512396512
 20
400.3597022181758
 30
0.0
 10
568.3390038408564
 20
400.3593990954167
 30
0.0
 10
572.963498679185
 20
400.3354462464732
 30
0.0
 10
579.7253107130756
 20
400.2860113088832
 30
0.0
 10
581.9549123312225
 20
400.2672582021186
 30
0.0
 10
586.2324573906646
 20
400.230008881798
 30
0.0
 10
588.2981874728858
 20
400.2114220706506
 30
0.0
 10
592.302997860347
 20
400.1764559526875
 30
0.0
 10
594.2420038764235
 20
400.1601174162612
 30
0.0
 10
598.0072790639142
 20
400.130928184174
 30
0.0
 10
599.8326436076103
 20
400.1180489467486
 30
0.0
 10
605.0620594015468
 20
400.0858186075239
 30
0.0
 10
608.261174535533
 20
400.0724925723314
 30
0.0
 10
614.2268444961347
 20
400.0592324672953
 30
0.0
 10
616.9954962658416
 20
400.0591492607749
 30
0.0
 10
622.1628333288838
 20
400.0682927622885
 30
0.0
 10
624.5302860741959
 20
400.0773159356992
 30
0.0
 10
631.1181588465441
 20
400.1123106850561
 30
0.0
 10
634.831115831757
 20
400.1456063540728
 30
0.0
 10
641.26151657632
 20
400.2150704586503
 30
0.0
 10
643.9808907251678
 20
400.2513062162585
 30
0.0
 10
648.5083492033692
 20
400.3182903112314
 30
0.0
 10
650.3276277506435
 20
400.3486929210468
 30
0.0
 10
654.6404932906911
 20
400.4255590875617
 30
0.0
 10
656.0215478677686
 20
400.4584522469457
 30
0.0
 10
656.0211118252646
 20
400.4584351856371
 30
0.0
  0
ARC
  5
112
330
1F
100
AcDbEntity
  8
NECK
  6
Continuous
 62
     7
100
AcDbCircle
 10
563.5210843193
 20
14001.3437105403
 30
0.0
 40
13610.60801151381
100
AcDbArc
 50
269.5832950502
 51
270.4167052255
  0
SPLINE
  5
113
330
1F
100
AcDbEntity
  8
NECK
  6
Continuous
 62
     7
100
AcDbSpline
210
0.0
220
0.0
230
1.0
 70
     8
 71
     3
 72
    36
 73
    32
 74
     0
 42
0.000000000011055
 43
0.0000000001
 40
0.0
 40
0.0
 40
0.0
 40
0.0
 40
0.0156249999999999
 40
0.0156249999999999
 40
0.0312499999999998
 40
0.0312499999999998
 40
0.0390624999999997
 40
0.0390624999999997
 40
0.0468749999999997
 40
0.0468749999999997
 40
0.0624999999999995
 40
0.0624999999999995
 40
0.0703124999999994
 40
0.0703124999999994
 40
0.0781249999999993
 40
0.0781249999999993
 40
0.0937499999999993
 40
0.0937499999999993
 40
0.1249999999999991
 40
0.1249999999999991
 40
0.1562499999999989
 40
0.1562499999999989
 40
0.1874999999999987
 40
0.1874999999999987
 40
0.2031249999999986
 40
0.2031249999999986
 40
0.2187499999999985
 40
0.2187499999999985
 40
0.2499999999999983
 40
0.2499999999999983
 40
0.2500299381832801
 40
0.2500299381832801
 40
0.2500299381832801
 40
0.2500299381832801
 10
563.5211000518381
 20
273.9544413783858
 30
0.0
 10
572.5539836574778
 20
273.9544413661567
 30
0.0
 10
581.5812069474583
 20
273.9690371947594
 30
0.0
 10
599.2051110721078
 20
274.0129478032508
 30
0.0
 10
607.8482885001918
 20
274.0421352630082
 30
0.0
 10
620.5751128689758
 20
274.0882832370644
 30
0.0
 10
624.790123902811
 20
274.1041431261123
 30
0.0
 10
633.020289866433
 20
274.135224387222
 30
0.0
 10
637.0485538810631
 20
274.1504929019094
 30
0.0
 10
648.8914193357102
 20
274.1944531259642
 30
0.0
 10
656.4648447547189
 20
274.2212116814368
 30
0.0
 10
667.3919998756242
 20
274.2553829445425
 30
0.0
 10
670.9619027007906
 20
274.2657971212705
 30
0.0
 10
677.9621037590549
 20
274.2845305436903
 30
0.0
 10
681.3952596990224
 20
274.2928507344301
 30
0.0
 10
691.3691895342182
 20
274.3143260380884
 30
0.0
 10
697.631075995788
 20
274.3241299681897
 30
0.0
 10
715.401409630601
 20
274.3413916917117
 30
0.0
 10
725.9041691069771
 20
274.33673186618
 30
0.0
 10
744.6040676425057
 20
274.3038442221821
 30
0.0
 10
752.5523702381569
 20
274.2760936730782
 30
0.0
 10
766.0995092177837
 20
274.2097999427245
 30
0.0
 10
771.6982950387492
 20
274.1710192747896
 30
0.0
 10
778.4481536319763
 20
274.1137603716801
 30
0.0
 10
780.4257638871908
 20
274.0948219155798
 30
0.0
 10
783.7978997538532
 20
274.0595444788017
 30
0.0
 10
785.1973429666449
 20
274.0431506152411
 30
0.0
 10
788.5559648038774
 20
274.0009115372637
 30
0.0
 10
789.6865190542452
 20
273.9818527272504
 30
0.0
 10
789.6882308048415
 20
273.981823787062
 30
0.0
 10
789.6882314037958
 20
273.9818237769136
 30
0.0
 10
789.6882309633871
 20
273.9818237843068
 30
0.0
  0
SPLINE
  5
114
330
1F
100
AcDbEntity
  8
NECK
  6
Continuous
 62
     7
100
AcDbSpline
210
0.0
220
0.0
230
1.0
 70
     8
 71
     3
 72
    40
 73
    36
 74
     0
 42
0.0000000000110524
 43
0.0000000001
 40
0.7500294388088916
 40
0.7500294388088916
 40
0.7500294388088916
 40
0.7500294388088916
 40
0.7812499999999988
 40
0.7812499999999988
 40
0.7968749999999989
 40
0.7968749999999989
 40
0.812499999999999
 40
0.812499999999999
 40
0.8437499999999991
 40
0.8437499999999991
 40
0.8593749999999991
 40
0.8593749999999991
 40
0.8671874999999991
 40
0.8671874999999991
 40
0.8749999999999992
 40
0.8749999999999992
 40
0.9062499999999994
 40
0.9062499999999994
 40
0.9140624999999994
 40
0.9140624999999994
 40
0.9218749999999994
 40
0.9218749999999994
 40
0.9374999999999996
 40
0.9374999999999996
 40
0.9531249999999997
 40
0.9531249999999997
 40
0.9609374999999998
 40
0.9609374999999998
 40
0.9687499999999998
 40
0.9687499999999998
 40
0.9843749999999999
 40
0.9843749999999999
 40
0.9921875
 40
0.9921875
 40
1.0
 40
1.0
 40
1.0
 40
1.0
 10
337.3539920682051
 20
273.9818237839512
 30
0.0
 10
337.3544152835026
 20
273.9818308851994
 30
0.0
 10
338.4856576240838
 20
274.0009233033642
 30
0.0
 10
341.866727183922
 20
274.04341542145
 30
0.0
 10
343.2779657552746
 20
274.0599164596589
 30
0.0
 10
346.6426590026294
 20
274.0950752123201
 30
0.0
 10
348.5981308296413
 20
274.1137858044024
 30
0.0
 10
355.2940524340722
 20
274.1706134533507
 30
0.0
 10
360.8591796675083
 20
274.2092987101325
 30
0.0
 10
371.020513407624
 20
274.2591613854283
 30
0.0
 10
374.7120718697334
 20
274.2744983720413
 30
0.0
 10
380.7506302233274
 20
274.2943396711192
 30
0.0
 10
382.851964672499
 20
274.3004427670036
 30
0.0
 10
387.1996099722838
 20
274.3113504141293
 30
0.0
 10
389.4466354450836
 20
274.3161652745727
 30
0.0
 10
401.0576257380667
 20
274.336609364663
 30
0.0
 10
411.5309341026509
 20
274.3414525989535
 30
0.0
 10
426.4090101547183
 20
274.3270575270968
 30
0.0
 10
429.4751153999912
 20
274.3231506569988
 30
0.0
 10
435.8016474774086
 20
274.3131451926959
 30
0.0
 10
439.0633005759925
 20
274.3070385381787
 30
0.0
 10
449.0419258498065
 20
274.2855160167725
 30
0.0
 10
455.9869583930898
 20
274.266827847117
 30
0.0
 10
470.5190883123045
 20
274.2214045793028
 30
0.0
 10
478.1053940414104
 20
274.1946229655906
 30
0.0
 10
490.0365766061163
 20
274.1503327989452
 30
0.0
 10
494.1175014838389
 20
274.1348622657111
 30
0.0
 10
502.3490330606206
 20
274.1037780072488
 30
0.0
 10
506.5124541343507
 20
274.088117274607
 30
0.0
 10
519.1495694779495
 20
274.042298821692
 30
0.0
 10
527.7695236668502
 20
274.0131433369328
 30
0.0
 10
541.0200842733739
 20
273.980088375722
 30
0.0
 10
545.5055860856868
 20
273.9708707211503
 30
0.0
 10
554.4958966590342
 20
273.958056207503
 30
0.0
 10
559.0046582490182
 20
273.9544413845003
 30
0.0
 10
563.5211000518381
 20
273.9544413783858
 30
0.0
  0
LINE
  5
115
330
1F
100
AcDbEntity
  8
NECK
  6
Continuous
 62
     7
100
AcDbLine
 10
342.7792346378
 20
265.4192580319
 30
0.0
 11
784.2629885353
 21
265.4192580319
 31
0.0
  0
ARC
  5
116
330
1F
100
AcDbEntity
  8
NECK
  6
Continuous
 62
     7
100
AcDbCircle
 10
581.8610907163
 20
175.9033149269
 30
0.0
 40
229.7841096172389
100
AcDbArc
 50
25.2636085939
 51
69.455683076
  0
ARC
  5
117
330
1F
100
AcDbEntity
  8
NECK
  6
Continuous
 62
     7
100
AcDbCircle
 10
545.1811323426
 20
175.9033149234
 30
0.0
 40
229.784109624275
100
AcDbArc
 50
110.5443169054
 51
154.7363914059
  0
LINE
  5
118
330
1F
100
AcDbEntity
  8
NECK
  6
Continuous
 62
     7
100
AcDbLine
 10
656.0211115264
 20
400.4584351611
 30
0.0
 11
656.0211115264
 21
408.4192580319
 31
0.0
  0
LINE
  5
119
330
1F
100
AcDbEntity
  8
NECK
  6
Continuous
 62
     7
100
AcDbLine
 10
471.0211115264
 20
408.4192580319
 30
0.0
 11
471.0211115264
 21
400.4584351611
 31
0.0
  0
ARC
  5
11A
330
1F
100
AcDbEntity
  8
NECK
  6
Continuous
 62
     7
100
AcDbCircle
 10
482.8339014646
 20
408.4192583008
 30
0.0
 40
4.99999962270574
100
AcDbArc
 50
89.9995982659
 51
90.0836103244
  0
ARC
  5
11B
330
1F
100
AcDbEntity
  8
NECK
  6
Continuous
 62
     7
100
AcDbCircle
 10
644.3957977523
 20
408.4192583101
 30
0.0
 40
4.999999721740484
100
AcDbArc
 50
89.9150748776
 51
90.0004156514
  0
ARC
  5
11C
330
1F
100
AcDbEntity
  8
NECK
  6
Continuous
 62
     7
100
AcDbCircle
 10
476.021111568
 20
408.4192580319
 30
0.0
 40
4.999999999430391
100
AcDbArc
 50
90.0008765737
 51
179.9991154373
  0
ARC
  5
11D
330
1F
100
AcDbEntity
  8
NECK
  6
Continuous
 62
     7
100
AcDbCircle
 10
651.0211037584
 20
408.4192580319
 30
0.0
 40
4.999999893637126
100
AcDbArc
 50
359.9968143261
 51
89.9874073564
  0
ARC
  5
11E
330
1F
100
AcDbEntity
  8
NECK
  6
Continuous
 62
     7
100
AcDbCircle
 10
461.0561325999
 20
400.4236166685
 30
0.0
 40
9.94838313566217
100
AcDbArc
 50
290.4435369415
 51
0.201244918
  0
ARC
  5
11F
330
1F
100
AcDbEntity
  8
NECK
  6
Continuous
 62
     7
100
AcDbCircle
 10
665.9797062009
 20
400.4322451725
 30
0.0
 40
9.94833093418338
100
AcDbArc
 50
179.8469911256
 51
249.6034545116
  0
ARC
  5
120
330
1F
100
AcDbEntity
  8
NECK
  6
Continuous
 62
     7
100
AcDbCircle
 10
342.7792346212
 20
271.4192580332
 30
0.0
 40
6.000000001271615
100
AcDbArc
 50
154.7245038467
 51
270.0000019817
  0
ARC
  5
121
330
1F
100
AcDbEntity
  8
NECK
  6
Continuous
 62
     7
100
AcDbCircle
 10
784.2629884119
 20
271.4192580334
 30
0.0
 40
6.000000001513196
100
AcDbArc
 50
269.9999976423
 51
25.2755750369
  0
INSERT
  5
123
330
1F
100
AcDbEntity
  8
Default
100
AcDbBlockReference
  2
GDimGGroup7
 10
0.0
 20
0.0
 30
0.0
  0
INSERT
  5
12D
330
1F
100
AcDbEntity
  8
Default
100
AcDbBlockReference
  2
GDimGGroup8
 10
0.0
 20
0.0
 30
0.0
  0
INSERT
  5
137
330
1F
100
AcDbEntity
  8
Default
100
AcDbBlockReference
  2
GDimGGroup9
 10
0.0
 20
0.0
 30
0.0
  0
SPLINE
  5
140
330
1F
100
AcDbEntity
  8
NECK
  6
Continuous
 62
     7
100
AcDbSpline
210
0.0
220
0.0
230
1.0
 70
    12
 71
     2
 72
     8
 73
     5
 74
     0
 42
0.000000000185595
 43
0.0000000001
 40
0.0
 40
0.0
 40
0.0
 40
0.5
 40
0.5
 40
1.0
 40
1.0
 40
1.0
 10
1864.477747786898
 20
1105.371362714365
 30
0.0
 41
1.0
 10
1875.309851963183
 20
1107.435420918446
 30
0.0
 41
0.8398907846887639
 10
1883.068203360913
 20
1121.596901149496
 30
0.0
 41
1.0
 10
1890.826554758644
 20
1135.758381380545
 30
0.0
 41
0.8398907846888414
 10
1886.369225079299
 20
1145.330331702995
 30
0.0
 41
1.0
  0
SPLINE
  5
141
330
1F
100
AcDbEntity
  8
NECK
  6
Continuous
 62
     7
100
AcDbSpline
210
0.0
220
0.0
230
1.0
 70
     8
 71
     3
 72
    30
 73
    26
 74
     0
 42
0.0000000000117197
 43
0.0000000001
 40
0.49845375205476
 40
0.49845375205476
 40
0.49845375205476
 40
0.49845375205476
 40
0.4999999999999974
 40
0.4999999999999974
 40
0.5078124999999974
 40
0.5078124999999974
 40
0.5156249999999976
 40
0.5156249999999976
 40
0.5312499999999977
 40
0.5312499999999977
 40
0.5468749999999978
 40
0.5468749999999978
 40
0.5546874999999978
 40
0.5546874999999978
 40
0.5624999999999979
 40
0.5624999999999979
 40
0.578124999999998
 40
0.578124999999998
 40
0.593749999999998
 40
0.593749999999998
 40
0.6249999999999982
 40
0.6249999999999982
 40
0.6562499999999984
 40
0.6562499999999984
 40
0.6698555712701842
 40
0.6698555712701842
 40
0.6698555712701842
 40
0.6698555712701842
 10
1874.507310150637
 20
1277.47303263979
 30
0.0
 10
1874.17941291869
 20
1277.293890990771
 30
0.0
 10
1873.85133531526
 20
1277.108955358664
 30
0.0
 10
1871.864534655012
 20
1275.954496249931
 30
0.0
 10
1870.192058666643
 20
1274.835421871194
 30
0.0
 10
1866.880024980623
 20
1272.325914454784
 30
0.0
 10
1865.260438275931
 20
1270.952602640492
 30
0.0
 10
1860.500338765328
 20
1266.511586498139
 30
0.0
 10
1857.429961105069
 20
1263.081259404393
 30
0.0
 10
1851.764638422605
 20
1255.831451910598
 30
0.0
 10
1849.136443962489
 20
1251.989293680977
 30
0.0
 10
1845.429641998238
 20
1245.975838803452
 30
0.0
 10
1844.234783665151
 20
1243.929818907127
 30
0.0
 10
1841.95146664985
 20
1239.82786012831
 30
0.0
 10
1840.857587868913
 20
1237.763271132127
 30
0.0
 10
1837.699829492819
 20
1231.534218667263
 30
0.0
 10
1835.758841617518
 20
1227.334750645432
 30
0.0
 10
1832.137423468878
 20
1218.861597214001
 30
0.0
 10
1830.452415493803
 20
1214.573349051893
 30
0.0
 10
1825.765070577357
 20
1201.717215046656
 30
0.0
 10
1823.145846701778
 20
1193.231982360665
 30
0.0
 10
1818.624100160141
 20
1176.382731087854
 30
0.0
 10
1816.726635768581
 20
1168.019567995874
 30
0.0
 10
1814.430201065069
 20
1156.087507341257
 30
0.0
 10
1813.790452917664
 20
1152.47514135146
 30
0.0
 10
1813.206118254233
 20
1148.881963522923
 30
0.0
  0
SPLINE
  5
142
330
1F
100
AcDbEntity
  8
NECK
  6
Continuous
 62
     7
100
AcDbSpline
210
0.0
220
0.0
230
1.0
 70
    11
 71
     3
 72
   106
 73
   102
 74
     0
 42
0.0000000000074492
 43
0.0000000001
 40
0.0
 40
0.0
 40
0.0
 40
0.0
 40
0.03125
 40
0.03125
 40
0.0625
 40
0.0625
 40
0.0781250000000001
 40
0.0781250000000001
 40
0.09375
 40
0.09375
 40
0.125
 40
0.125
 40
0.1406249999999999
 40
0.1406249999999999
 40
0.1562499999999999
 40
0.1562499999999999
 40
0.1718749999999999
 40
0.1718749999999999
 40
0.1874999999999998
 40
0.1874999999999998
 40
0.2187499999999998
 40
0.2187499999999998
 40
0.2265624999999998
 40
0.2265624999999998
 40
0.2343749999999998
 40
0.2343749999999998
 40
0.2499999999999998
 40
0.2499999999999998
 40
0.2812499999999998
 40
0.2812499999999998
 40
0.2890624999999998
 40
0.2890624999999998
 40
0.2968749999999998
 40
0.2968749999999998
 40
0.3124999999999998
 40
0.3124999999999998
 40
0.3281249999999998
 40
0.3281249999999998
 40
0.3437499999999998
 40
0.3437499999999998
 40
0.3593749999999998
 40
0.3593749999999998
 40
0.3749999999999997
 40
0.3749999999999997
 40
0.4062499999999997
 40
0.4062499999999997
 40
0.4374999999999997
 40
0.4374999999999997
 40
0.4687499999999997
 40
0.4687499999999997
 40
0.4999999999999996
 40
0.4999999999999996
 40
0.5312499999999996
 40
0.5312499999999996
 40
0.5624999999999996
 40
0.5624999999999996
 40
0.5781249999999996
 40
0.5781249999999996
 40
0.5937499999999997
 40
0.5937499999999997
 40
0.6249999999999998
 40
0.6249999999999998
 40
0.6406249999999998
 40
0.6406249999999998
 40
0.6562499999999998
 40
0.6562499999999998
 40
0.6718749999999998
 40
0.6718749999999998
 40
0.6874999999999998
 40
0.6874999999999998
 40
0.7187499999999999
 40
0.7187499999999999
 40
0.7265624999999999
 40
0.7265624999999999
 40
0.7343749999999999
 40
0.7343749999999999
 40
0.7499999999999999
 40
0.7499999999999999
 40
0.78125
 40
0.78125
 40
0.7890625
 40
0.7890625
 40
0.796875
 40
0.796875
 40
0.8125
 40
0.8125
 40
0.828125
 40
0.828125
 40
0.84375
 40
0.84375
 40
0.859375
 40
0.859375
 40
0.875
 40
0.875
 40
0.90625
 40
0.90625
 40
0.9375000000000001
 40
0.9375000000000001
 40
0.9687500000000001
 40
0.9687500000000001
 40
1.0
 40
1.0
 40
1.0
 40
1.0
 10
2129.480592816296
 20
1156.884676536681
 30
0.0
 10
2129.48059291906
 20
1142.623786824293
 30
0.0
 10
2128.738496288909
 20
1128.066664730537
 30
0.0
 10
2125.79623735463
 20
1098.370385549964
 30
0.0
 10
2123.594063740391
 20
1083.230425582393
 30
0.0
 10
2119.116166210359
 20
1060.051590495793
 30
0.0
 10
2117.426137912766
 20
1052.246515095909
 30
0.0
 10
2113.620519127146
 20
1036.466487115042
 30
0.0
 10
2111.525819357298
 20
1028.576708636564
 30
0.0
 10
2104.646792416427
 20
1004.909463898409
 30
0.0
 10
2099.272498255232
 20
989.1334833708405
 30
0.0
 10
2089.838436088484
 20
965.473313182954
 30
0.0
 10
2086.463470832096
 20
957.5872273955589
 30
0.0
 10
2079.189833063742
 20
941.8165058960038
 30
0.0
 10
2075.328744459022
 20
934.015224336547
 30
0.0
 10
2067.174612528533
 20
918.7025380634021
 30
0.0
 10
2062.874407130054
 20
911.1743080976133
 30
0.0
 10
2053.776826742603
 20
896.4032928843089
 30
0.0
 10
2048.968627023418
 20
889.1441703561569
 30
0.0
 10
2033.750557298298
 20
867.964220140629
 30
0.0
 10
2022.891335757597
 20
855.0818206754703
 30
0.0
 10
2008.244711165706
 20
840.838353788607
 30
0.0
 10
2005.252361997579
 20
838.077723421236
 30
0.0
 10
1999.250911259695
 20
832.8440542385358
 30
0.0
 10
1996.231619598962
 20
830.360163558452
 30
0.0
 10
1987.117438879905
 20
823.3116686829956
 30
0.0
 10
1980.966291780396
 20
819.1486849272928
 30
0.0
 10
1962.276457125976
 20
808.3597216184659
 30
0.0
 10
1950.208513807523
 20
803.8134303816659
 30
0.0
 10
1935.565609554479
 20
801.1150378261892
 30
0.0
 10
1932.652351621751
 20
800.7272928762605
 30
0.0
 10
1926.965239466569
 20
800.2584609616707
 30
0.0
 10
1924.179880247164
 20
800.1744974714738
 30
0.0
 10
1915.987348787562
 20
800.3454121115415
 30
0.0
 10
1910.743270457571
 20
801.0219260813309
 30
0.0
 10
1900.651203227157
 20
803.3989376813162
 30
0.0
 10
1895.79123625955
 20
805.1128795545682
 30
0.0
 10
1886.665075037492
 20
809.3818890632581
 30
0.0
 10
1882.366065473883
 20
811.9418088591322
 30
0.0
 10
1874.233768199648
 20
817.811920331738
 30
0.0
 10
1870.40100387181
 20
821.1229551713712
 30
0.0
 10
1863.163036618589
 20
828.4338207393163
 30
0.0
 10
1859.745719552992
 20
832.4550211443076
 30
0.0
 10
1850.250609335777
 20
845.2765419002835
 30
0.0
 10
1844.87725546695
 20
854.8505841081146
 30
0.0
 10
1835.731920769215
 20
875.7166096485747
 30
0.0
 10
1831.95811802859
 20
887.0220919508824
 30
0.0
 10
1825.922663033541
 20
911.1920964548931
 30
0.0
 10
1823.705741953714
 20
923.8542987421473
 30
0.0
 10
1820.74919614657
 20
950.2434993621138
 30
0.0
 10
1820.007821476909
 20
963.969449671626
 30
0.0
 10
1820.009148615597
 20
992.4901798318174
 30
0.0
 10
1820.751802778636
 20
1007.046734924311
 30
0.0
 10
1823.695039858426
 20
1036.741825446121
 30
0.0
 10
1825.897628767119
 20
1051.881161633269
 30
0.0
 10
1830.37606646159
 20
1075.059028005969
 30
0.0
 10
1832.066262084154
 20
1082.863775419682
 30
0.0
 10
1835.872188991888
 20
1098.643136838753
 30
0.0
 10
1837.966973395365
 20
1106.532373846075
 30
0.0
 10
1844.846280174427
 20
1130.19830640998
 30
0.0
 10
1850.220696032508
 20
1145.973412334308
 30
0.0
 10
1859.654850597257
 20
1169.63227086694
 30
0.0
 10
1863.029832725668
 20
1177.517919474481
 30
0.0
 10
1870.303474778243
 20
1193.287766695895
 30
0.0
 10
1874.164472623529
 20
1201.088456821356
 30
0.0
 10
1882.318450992946
 20
1216.400124269155
 30
0.0
 10
1886.618561407472
 20
1223.927855273572
 30
0.0
 10
1895.715914367158
 20
1238.697894071318
 30
0.0
 10
1900.52402068479
 20
1245.956592162792
 30
0.0
 10
1915.741489152892
 20
1267.134951414431
 30
0.0
 10
1926.600239553571
 20
1280.016412117619
 30
0.0
 10
1941.246174000637
 20
1294.258881033938
 30
0.0
 10
1944.238370172981
 20
1297.019311425366
 30
0.0
 10
1950.23950098407
 20
1302.252602444169
 30
0.0
 10
1953.258630639549
 20
1304.736318663003
 30
0.0
 10
1962.372319227162
 20
1311.784333946073
 30
0.0
 10
1968.523130101089
 20
1315.947056110104
 30
0.0
 10
1987.211930001263
 20
1326.735422183365
 30
0.0
 10
1999.279226271154
 20
1331.281604157209
 30
0.0
 10
2013.921369532483
 20
1333.980182999065
 30
0.0
 10
2016.834489013804
 20
1334.367984147107
 30
0.0
 10
2022.521350844941
 20
1334.836956968065
 30
0.0
 10
2025.306590171944
 20
1334.921004534645
 30
0.0
 10
2033.498776899677
 20
1334.750380760912
 30
0.0
 10
2038.742645330301
 20
1334.074112204719
 30
0.0
 10
2048.834330019576
 20
1331.697687751511
 30
0.0
 10
2053.694157013227
 20
1329.984080653605
 30
0.0
 10
2062.820106645617
 20
1325.715780620009
 30
0.0
 10
2067.119028917172
 20
1323.156245369421
 30
0.0
 10
2075.251187047324
 20
1317.286960080809
 30
0.0
 10
2079.083899472663
 20
1313.976366798578
 30
0.0
 10
2086.321798772753
 20
1306.66644210233
 30
0.0
 10
2089.739112598855
 20
1302.645733415686
 30
0.0
 10
2099.234340701207
 20
1289.825612960756
 30
0.0
 10
2104.607829192938
 20
1280.252564398542
 30
0.0
 10
2113.753553688415
 20
1259.388655476535
 30
0.0
 10
2117.527581185473
 20
1248.084437632765
 30
0.0
 10
2123.56377704867
 20
1223.916546157246
 30
0.0
 10
2125.781121463829
 20
1211.255438514062
 30
0.0
 10
2128.738657007068
 20
1184.868530300006
 30
0.0
 10
2129.480592713533
 20
1171.145566249069
 30
0.0
 10
2129.480592816296
 20
1156.884676536681
 30
0.0
  0
SPLINE
  5
143
330
1F
100
AcDbEntity
  8
NECK
  6
Continuous
 62
     7
100
AcDbSpline
210
0.0
220
0.0
230
1.0
 70
     8
 71
     3
 72
    64
 73
    60
 74
     0
 42
0.0000000000075731
 43
0.0000000001
 40
0.0
 40
0.0
 40
0.0
 40
0.0
 40
0.015625
 40
0.015625
 40
0.0312499999999999
 40
0.0312499999999999
 40
0.0390624999999999
 40
0.0390624999999999
 40
0.0468749999999999
 40
0.0468749999999999
 40
0.0624999999999999
 40
0.0624999999999999
 40
0.0703124999999999
 40
0.0703124999999999
 40
0.0781249999999999
 40
0.0781249999999999
 40
0.0937499999999999
 40
0.0937499999999999
 40
0.1249999999999999
 40
0.1249999999999999
 40
0.1406249999999999
 40
0.1406249999999999
 40
0.1562499999999999
 40
0.1562499999999999
 40
0.1874999999999998
 40
0.1874999999999998
 40
0.2031249999999998
 40
0.2031249999999998
 40
0.2187499999999998
 40
0.2187499999999998
 40
0.2499999999999997
 40
0.2499999999999997
 40
0.2812499999999997
 40
0.2812499999999997
 40
0.2968749999999996
 40
0.2968749999999996
 40
0.3124999999999996
 40
0.3124999999999996
 40
0.3437499999999996
 40
0.3437499999999996
 40
0.3593749999999995
 40
0.3593749999999995
 40
0.3749999999999995
 40
0.3749999999999995
 40
0.4062499999999994
 40
0.4062499999999994
 40
0.4140624999999994
 40
0.4140624999999994
 40
0.4218749999999993
 40
0.4218749999999993
 40
0.4374999999999993
 40
0.4374999999999993
 40
0.4531249999999993
 40
0.4531249999999993
 40
0.4609374999999993
 40
0.4609374999999993
 40
0.4687499999999994
 40
0.4687499999999994
 40
0.4821859021256868
 40
0.4821859021256868
 40
0.4821859021256868
 40
0.4821859021256868
 10
1973.392151846142
 20
819.9242584464619
 30
0.0
 10
1979.512793313425
 20
823.4580128585962
 30
0.0
 10
1985.634377507107
 20
827.6066991215707
 30
0.0
 10
1997.579759805091
 20
836.8721891888273
 30
0.0
 10
2003.434443334745
 20
842.0026961120046
 30
0.0
 10
2012.047539933467
 20
850.4068323412771
 30
0.0
 10
2014.901634893532
 20
853.3389795471742
 30
0.0
 10
2020.491762910059
 20
859.3695434150454
 30
0.0
 10
2023.224905510609
 20
862.4631970705962
 30
0.0
 10
2031.251683494271
 20
871.9625850925567
 30
0.0
 10
2036.373168385112
 20
878.5861028755014
 30
0.0
 10
2043.746651677585
 20
888.9118629212386
 30
0.0
 10
2046.152776612204
 20
892.4191666397522
 30
0.0
 10
2050.865624753035
 20
899.5594994886986
 30
0.0
 10
2053.178835038822
 20
903.2035712721715
 30
0.0
 10
2059.898954370899
 20
914.1937991651431
 30
0.0
 10
2064.104588323358
 20
921.6202815256003
 30
0.0
 10
2076.006851963729
 20
944.1592503751519
 30
0.0
 10
2082.995357065173
 20
959.5289006269918
 30
0.0
 10
2092.279282019914
 20
983.0186002052785
 30
0.0
 10
2095.139254026868
 20
990.8392316231062
 30
0.0
 10
2100.412441248387
 20
1006.393853786692
 30
0.0
 10
2102.829854632248
 20
1014.139906007
 30
0.0
 10
2109.481456881157
 20
1037.291999598571
 30
0.0
 10
2113.119212314794
 20
1052.612829735355
 30
0.0
 10
2117.482375083286
 20
1075.43601007724
 30
0.0
 10
2118.756381907589
 20
1083.037477024877
 30
0.0
 10
2120.925497200281
 20
1098.057545442031
 30
0.0
 10
2121.822366243206
 20
1105.480614980806
 30
0.0
 10
2123.969380409846
 20
1127.496792066342
 30
0.0
 10
2124.682684663901
 20
1141.840037105045
 30
0.0
 10
2124.685147733491
 20
1169.857688541076
 30
0.0
 10
2123.972175422234
 20
1183.422363566822
 30
0.0
 10
2121.814268508702
 20
1203.001455560925
 30
0.0
 10
2120.9106981213
 20
1209.402912814533
 30
0.0
 10
2118.747888780344
 20
1221.834866847116
 30
0.0
 10
2117.487516442363
 20
1227.880908101706
 30
0.0
 10
2113.15799424626
 20
1245.49942372366
 30
0.0
 10
2109.543474541653
 20
1256.555276112811
 30
0.0
 10
2102.903813205452
 20
1271.989330110462
 30
0.0
 10
2100.486526106483
 20
1276.941238688907
 30
0.0
 10
2095.200011974746
 20
1286.418736569802
 30
0.0
 10
2092.319468376328
 20
1290.957289831072
 30
0.0
 10
2083.083141946062
 20
1303.637896546933
 30
0.0
 10
2076.110374184626
 20
1310.928548059393
 30
0.0
 10
2066.15623574595
 20
1318.2766680751
 30
0.0
 10
2064.10270013532
 20
1319.656900967472
 30
0.0
 10
2059.86090899397
 20
1322.225278089163
 30
0.0
 10
2057.668859568291
 20
1323.414433277773
 30
0.0
 10
2050.955041945744
 20
1326.633400870307
 30
0.0
 10
2046.274475321235
 20
1328.331768789776
 30
0.0
 10
2036.465105558909
 20
1330.748153822456
 30
0.0
 10
2031.336847941878
 20
1331.467348555291
 30
0.0
 10
2023.260859968516
 20
1331.706639413706
 30
0.0
 10
2020.496645616706
 20
1331.644460836226
 30
0.0
 10
2014.92009622911
 20
1331.224626066586
 30
0.0
 10
2012.098860025302
 20
1330.867985346197
 30
0.0
 10
2004.334254560713
 20
1329.490136242879
 30
0.0
 10
1999.325310788854
 20
1328.176520278402
 30
0.0
 10
1994.210762378223
 20
1326.389320898129
 30
0.0
  0
SPLINE
  5
144
330
1F
100
AcDbEntity
  8
NECK
  6
Continuous
 62
     7
100
AcDbSpline
210
0.0
220
0.0
230
1.0
 70
     8
 71
     3
 72
    14
 73
    10
 74
     0
 42
0.0000000000075814
 43
0.0000000001
 40
0.4821859021256868
 40
0.4821859021256868
 40
0.4821859021256868
 40
0.4821859021256868
 40
0.4843749999999994
 40
0.4843749999999994
 40
0.4921874999999994
 40
0.4921874999999994
 40
0.4999999999999994
 40
0.4999999999999994
 40
0.5086118999270024
 40
0.5086118999270024
 40
0.5086118999270024
 40
0.5086118999270024
 10
1994.210762378223
 20
1326.389320898129
 30
0.0
 10
1993.377454205162
 20
1326.098134319979
 30
0.0
 10
1992.541342666818
 20
1325.794376065793
 30
0.0
 10
1988.708363240146
 20
1324.348504164435
 30
0.0
 10
1985.668102146791
 20
1323.051460603483
 30
0.0
 10
1979.575885819737
 20
1320.145765924471
 30
0.0
 10
1976.522312437259
 20
1318.537767736534
 30
0.0
 10
1970.087246491251
 20
1314.827327172481
 30
0.0
 10
1966.713494489111
 20
1312.694078043962
 30
0.0
 10
1963.364970750859
 20
1310.395402376529
 30
0.0
  0
SPLINE
  5
145
330
1F
100
AcDbEntity
  8
NECK
  6
Continuous
 62
     7
100
AcDbSpline
210
0.0
220
0.0
230
1.0
 70
     8
 71
     3
 72
    12
 73
     8
 74
     0
 42
0.0000000000079932
 43
0.0000000001
 40
0.7556943844390522
 40
0.7556943844390522
 40
0.7556943844390522
 40
0.7556943844390522
 40
0.7812499999999994
 40
0.7812499999999994
 40
0.7968749999999996
 40
0.7968749999999996
 40
0.8124950190984644
 40
0.8124950190984644
 40
0.8124950190984644
 40
0.8124950190984644
 10
1821.812023401465
 20
973.4003155772385
 30
0.0
 10
1822.02795674378
 20
962.0736377577604
 30
0.0
 10
1822.731082739758
 20
951.0478164520489
 30
0.0
 10
1824.654254652971
 20
933.8281486893653
 30
0.0
 10
1825.570149260466
 20
927.4185106190037
 30
0.0
 10
1827.75939878978
 20
914.9712130559274
 30
0.0
 10
1829.033830954151
 20
908.917861767673
 30
0.0
 10
1830.491614815336
 20
903.0373563077338
 30
0.0
  0
SPLINE
  5
146
330
1F
100
AcDbEntity
  8
NECK
  6
Continuous
 62
     7
100
AcDbSpline
210
0.0
220
0.0
230
1.0
 70
     8
 71
     3
 72
    34
 73
    30
 74
     0
 42
0.0000000000094199
 43
0.0000000001
 40
0.8124950190984644
 40
0.8124950190984644
 40
0.8124950190984644
 40
0.8124950190984644
 40
0.8124999999999997
 40
0.8124999999999997
 40
0.8437499999999997
 40
0.8437499999999997
 40
0.8593749999999997
 40
0.8593749999999997
 40
0.8749999999999997
 40
0.8749999999999997
 40
0.9062499999999996
 40
0.9062499999999996
 40
0.9140624999999996
 40
0.9140624999999996
 40
0.9218749999999996
 40
0.9218749999999996
 40
0.9374999999999997
 40
0.9374999999999997
 40
0.9531249999999998
 40
0.9531249999999998
 40
0.9609374999999999
 40
0.9609374999999999
 40
0.9687499999999999
 40
0.9687499999999999
 40
0.984375
 40
0.984375
 40
0.9921875
 40
0.9921875
 40
1.0
 40
1.0
 40
1.0
 40
1.0
 10
1830.491614815336
 20
903.0373563077338
 30
0.0
 10
1830.492079672506
 20
903.0354811359757
 30
0.0
 10
1830.49254454832
 20
903.0336059817934
 30
0.0
 10
1833.409740823029
 20
891.2671901206767
 30
0.0
 10
1837.057154922337
 20
880.1915756359446
 30
0.0
 10
1843.745175264719
 20
864.7295126298242
 30
0.0
 10
1846.178591503519
 20
859.7684464864305
 30
0.0
 10
1851.496601690973
 20
850.2735222271823
 30
0.0
 10
1854.392403026449
 20
845.7268432099856
 30
0.0
 10
1863.671855816157
 20
833.0242904608174
 30
0.0
 10
1870.670470052816
 20
825.7216323532186
 30
0.0
 10
1880.651403365608
 20
818.363595303865
 30
0.0
 10
1882.710011545845
 20
816.981641704703
 30
0.0
 10
1886.961387022525
 20
814.4103789340754
 30
0.0
 10
1889.157830042042
 20
813.2201324421158
 30
0.0
 10
1895.883467466334
 20
809.9989165375936
 30
0.0
 10
1900.570460710458
 20
808.3002557062019
 30
0.0
 10
1910.389666862413
 20
805.885991560565
 30
0.0
 10
1915.521349541495
 20
805.1692003252841
 30
0.0
 10
1923.600330638359
 20
804.935758890927
 30
0.0
 10
1926.364943665457
 20
805.0002733913739
 30
0.0
 10
1931.941311151324
 20
805.4252939516072
 30
0.0
 10
1934.762113986999
 20
805.784820009867
 30
0.0
 10
1943.32472422206
 20
807.3139770646692
 30
0.0
 10
1949.166346487226
 20
808.9326517880583
 30
0.0
 10
1958.146101715011
 20
812.332038007969
 30
0.0
 10
1961.185719559179
 20
813.6328597771535
 30
0.0
 10
1967.276859272051
 20
816.5453558339279
 30
0.0
 10
1970.3318311125
 20
818.1573812403946
 30
0.0
 10
1973.392151846142
 20
819.9242584464619
 30
0.0
  0
SPLINE
  5
147
330
1F
100
AcDbEntity
  8
NECK
  6
Continuous
 62
     7
100
AcDbSpline
210
0.0
220
0.0
230
1.0
 70
     8
 71
     3
 72
    12
 73
     8
 74
     0
 42
0.0000000000078036
 43
0.0000000001
 40
0.0
 40
0.0
 40
0.0
 40
0.0
 40
0.0156249999999999
 40
0.0156249999999999
 40
0.0312499999999997
 40
0.0312499999999997
 40
0.0319269727828133
 40
0.0319269727828133
 40
0.0319269727828133
 40
0.0319269727828133
 10
1968.709244574154
 20
1329.232783399977
 30
0.0
 10
1975.096457834018
 20
1332.920443233425
 30
0.0
 10
1981.469347828266
 20
1335.95730402931
 30
0.0
 10
1993.900280456757
 20
1340.66817791158
 30
0.0
 10
1999.991291176433
 20
1342.364767249193
 30
0.0
 10
2006.228011949539
 20
1343.486519200831
 30
0.0
 10
2006.486857254837
 20
1343.531931614531
 30
0.0
 10
2006.745522206918
 20
1343.576173651579
 30
0.0
  0
SPLINE
  5
148
330
1F
100
AcDbEntity
  8
NECK
  6
Continuous
 62
     7
100
AcDbSpline
210
0.0
220
0.0
230
1.0
 70
     8
 71
     3
 72
    12
 73
     8
 74
     0
 42
0.0000000000089657
 43
0.0000000001
 40
0.0319269727828133
 40
0.0319269727828133
 40
0.0319269727828133
 40
0.0319269727828133
 40
0.0390624999999997
 40
0.0390624999999997
 40
0.0468749999999996
 40
0.0468749999999996
 40
0.0469694256365231
 40
0.0469694256365231
 40
0.0469694256365231
 40
0.0469694256365231
 10
2006.745522206918
 20
1343.576173651579
 30
0.0
 10
2009.47194024404
 20
1344.042500020256
 30
0.0
 10
2012.178321238993
 20
1344.378798842961
 30
0.0
 10
2017.724760087554
 20
1344.811537067056
 30
0.0
 10
2020.562376418434
 20
1344.884804519876
 30
0.0
 10
2023.377017902532
 20
1344.815067072272
 30
0.0
 10
2023.410622508735
 20
1344.814213535687
 30
0.0
 10
2023.444218875485
 20
1344.813339289839
 30
0.0
  0
SPLINE
  5
149
330
1F
100
AcDbEntity
  8
NECK
  6
Continuous
 62
     7
100
AcDbSpline
210
0.0
220
0.0
230
1.0
 70
     8
 71
     3
 72
    10
 73
     6
 74
     0
 42
0.0000000000089646
 43
0.0000000001
 40
0.6419572570778845
 40
0.6419572570778845
 40
0.6419572570778845
 40
0.6419572570778845
 40
0.6562499999999981
 40
0.6562499999999981
 40
0.6711247695504647
 40
0.6711247695504647
 40
0.6711247695504647
 40
0.6711247695504647
 10
1837.14269268206
 20
849.5772292707812
 30
0.0
 10
1834.596645363825
 20
854.0380607571568
 30
0.0
 10
1832.240998338009
 20
858.6941512113614
 30
0.0
 10
1827.790335118094
 20
868.5588765367836
 30
0.0
 10
1825.709811387686
 20
873.7836632599457
 30
0.0
 10
1823.812227824479
 20
879.1967381721495
 30
0.0
  0
SPLINE
  5
14A
330
1F
100
AcDbEntity
  8
NECK
  6
Continuous
 62
     7
100
AcDbSpline
210
0.0
220
0.0
230
1.0
 70
     8
 71
     3
 72
    48
 73
    44
 74
     0
 42
0.0000000000065667
 43
0.0000000001
 40
0.6711247695504647
 40
0.6711247695504647
 40
0.6711247695504647
 40
0.6711247695504647
 40
0.6874999999999983
 40
0.6874999999999983
 40
0.7031249999999984
 40
0.7031249999999984
 40
0.7187499999999984
 40
0.7187499999999984
 40
0.7499999999999987
 40
0.7499999999999987
 40
0.7812499999999988
 40
0.7812499999999988
 40
0.7968749999999989
 40
0.7968749999999989
 40
0.812499999999999
 40
0.812499999999999
 40
0.8437499999999991
 40
0.8437499999999991
 40
0.8593749999999992
 40
0.8593749999999992
 40
0.8671874999999993
 40
0.8671874999999993
 40
0.8749999999999993
 40
0.8749999999999993
 40
0.9062499999999994
 40
0.9062499999999994
 40
0.9140624999999996
 40
0.9140624999999996
 40
0.9218749999999996
 40
0.9218749999999996
 40
0.9374999999999997
 40
0.9374999999999997
 40
0.9531249999999998
 40
0.9531249999999998
 40
0.9609374999999998
 40
0.9609374999999998
 40
0.9687499999999998
 40
0.9687499999999998
 40
0.9843749999999999
 40
0.9843749999999999
 40
0.9921875
 40
0.9921875
 40
1.0
 40
1.0
 40
1.0
 40
1.0
 10
1823.812227824479
 20
879.1967381721495
 30
0.0
 10
1821.723229535171
 20
885.1558455604817
 30
0.0
 10
1819.855940295644
 20
891.3431433791402
 30
0.0
 10
1816.623816089363
 20
903.8653009760656
 30
0.0
 10
1815.238194659395
 20
910.1986589733303
 30
0.0
 10
1812.877592363388
 20
923.1331291040518
 30
0.0
 10
1811.899181551515
 20
929.743512940337
 30
0.0
 10
1809.553076653142
 20
949.9953835091122
 30
0.0
 10
1808.766777202272
 20
964.0520081243527
 30
0.0
 10
1808.764398432577
 20
993.304356728897
 30
0.0
 10
1809.550806005288
 20
1008.371569796456
 30
0.0
 10
1811.913020290399
 20
1031.519656454858
 30
0.0
 10
1812.89924865806
 20
1039.321289773723
 30
0.0
 10
1815.253585077452
 20
1054.971347959363
 30
0.0
 10
1816.62308208021
 20
1062.836891492704
 30
0.0
 10
1821.317630437067
 20
1086.555454187682
 30
0.0
 10
1825.225415034593
 20
1102.529645397406
 30
0.0
 10
1832.375304792298
 20
1126.75358759898
 30
0.0
 10
1834.974785926766
 20
1134.872360924531
 30
0.0
 10
1839.230661570057
 20
1147.122739654574
 30
0.0
 10
1840.712213868121
 20
1151.227175570289
 30
0.0
 10
1843.778750470543
 20
1159.402282787898
 30
0.0
 10
1845.364232799389
 20
1163.475152331343
 30
0.0
 10
1853.55998661711
 20
1183.763961504962
 30
0.0
 10
1860.962309299356
 20
1199.75692310657
 30
0.0
 10
1871.492876619708
 20
1219.387793729914
 30
0.0
 10
1873.663703004811
 20
1223.295718947437
 30
0.0
 10
1878.144311669805
 20
1231.072387354595
 30
0.0
 10
1880.454966750511
 20
1234.941434257588
 30
0.0
 10
1887.526139069379
 20
1246.349872550358
 30
0.0
 10
1892.450233207787
 20
1253.736406035836
 30
0.0
 10
1902.758119919443
 20
1268.029343200005
 30
0.0
 10
1908.141385605315
 20
1274.936315627763
 30
0.0
 10
1916.609323581568
 20
1284.885352055104
 30
0.0
 10
1919.505912555077
 20
1288.140761453783
 30
0.0
 10
1925.348464242518
 20
1294.404739556389
 30
0.0
 10
1928.303521326936
 20
1297.424763824452
 30
0.0
 10
1937.271709819791
 20
1306.14044944016
 30
0.0
 10
1943.387553921262
 20
1311.493046984883
 30
0.0
 10
1952.780488567883
 20
1318.773420233448
 30
0.0
 10
1955.958735182448
 20
1321.081742937774
 30
0.0
 10
1962.324905983333
 20
1325.387893907357
 30
0.0
 10
1965.515637944222
 20
1327.388953483253
 30
0.0
 10
1968.709244574154
 20
1329.232783399977
 30
0.0
  0
SPLINE
  5
14B
330
1F
100
AcDbEntity
  8
NECK
  6
Continuous
 62
     7
100
AcDbSpline
210
0.0
220
0.0
230
1.0
 70
    11
 71
     3
 72
   126
 73
   122
 74
     0
 42
0.0000000000074066
 43
0.0000000001
 40
0.0
 40
0.0
 40
0.0
 40
0.0
 40
0.03125
 40
0.03125
 40
0.0625
 40
0.0625
 40
0.078125
 40
0.078125
 40
0.09375
 40
0.09375
 40
0.1250000000000001
 40
0.1250000000000001
 40
0.1406250000000001
 40
0.1406250000000001
 40
0.1484375000000001
 40
0.1484375000000001
 40
0.1562500000000002
 40
0.1562500000000002
 40
0.1875000000000001
 40
0.1875000000000001
 40
0.1953125000000001
 40
0.1953125000000001
 40
0.2031250000000001
 40
0.2031250000000001
 40
0.2187500000000001
 40
0.2187500000000001
 40
0.2265625000000001
 40
0.2265625000000001
 40
0.2343750000000001
 40
0.2343750000000001
 40
0.25
 40
0.25
 40
0.2812499999999999
 40
0.2812499999999999
 40
0.2890624999999998
 40
0.2890624999999998
 40
0.2968749999999998
 40
0.2968749999999998
 40
0.3124999999999998
 40
0.3124999999999998
 40
0.3203124999999998
 40
0.3203124999999998
 40
0.3281249999999998
 40
0.3281249999999998
 40
0.3437499999999997
 40
0.3437499999999997
 40
0.3593749999999996
 40
0.3593749999999996
 40
0.3671874999999995
 40
0.3671874999999995
 40
0.3749999999999994
 40
0.3749999999999994
 40
0.4062499999999993
 40
0.4062499999999993
 40
0.4218749999999992
 40
0.4218749999999992
 40
0.4374999999999991
 40
0.4374999999999991
 40
0.4687499999999989
 40
0.4687499999999989
 40
0.4999999999999987
 40
0.4999999999999987
 40
0.5312499999999986
 40
0.5312499999999986
 40
0.5624999999999983
 40
0.5624999999999983
 40
0.5781249999999982
 40
0.5781249999999982
 40
0.5937499999999982
 40
0.5937499999999982
 40
0.6249999999999981
 40
0.6249999999999981
 40
0.6406249999999981
 40
0.6406249999999981
 40
0.6484374999999981
 40
0.6484374999999981
 40
0.6562499999999981
 40
0.6562499999999981
 40
0.6874999999999981
 40
0.6874999999999981
 40
0.6953124999999981
 40
0.6953124999999981
 40
0.7031249999999981
 40
0.7031249999999981
 40
0.7187499999999981
 40
0.7187499999999981
 40
0.7265624999999981
 40
0.7265624999999981
 40
0.7343749999999981
 40
0.7343749999999981
 40
0.7499999999999981
 40
0.7499999999999981
 40
0.7812499999999982
 40
0.7812499999999982
 40
0.7890624999999982
 40
0.7890624999999982
 40
0.7968749999999982
 40
0.7968749999999982
 40
0.8124999999999983
 40
0.8124999999999983
 40
0.8203124999999984
 40
0.8203124999999984
 40
0.8281249999999986
 40
0.8281249999999986
 40
0.8437499999999987
 40
0.8437499999999987
 40
0.8593749999999988
 40
0.8593749999999988
 40
0.8671874999999989
 40
0.8671874999999989
 40
0.874999999999999
 40
0.874999999999999
 40
0.9062499999999992
 40
0.9062499999999992
 40
0.9218749999999994
 40
0.9218749999999994
 40
0.9374999999999996
 40
0.9374999999999996
 40
0.9687499999999998
 40
0.9687499999999998
 40
1.0
 40
1.0
 40
1.0
 40
1.0
 10
2130.832616835749
 20
1157.665268504189
 30
0.0
 10
2130.832616709959
 20
1172.016736319392
 30
0.0
 10
2130.060024214263
 20
1185.770936673491
 30
0.0
 10
2127.025976536084
 20
1212.128343310939
 30
0.0
 10
2124.761907977871
 20
1224.729529273679
 30
0.0
 10
2120.185722356307
 20
1242.71902241755
 30
0.0
 10
2118.462082442661
 20
1248.562263230973
 30
0.0
 10
2114.590804056911
 20
1259.920964578869
 30
0.0
 10
2112.440368973621
 20
1265.438074988368
 30
0.0
 10
2105.417645994226
 20
1281.215052069407
 30
0.0
 10
2099.952467594644
 20
1290.79529196349
 30
0.0
 10
2090.416931716863
 20
1303.56424204415
 30
0.0
 10
2087.014097683921
 20
1307.552028257441
 30
0.0
 10
2081.532601270588
 20
1313.082116358162
 30
0.0
 10
2079.637358252295
 20
1314.854064529311
 30
0.0
 10
2075.743578746646
 20
1318.209362138041
 30
0.0
 10
2073.744584225462
 20
1319.794007969571
 30
0.0
 10
2063.479272330946
 20
1327.234702451332
 30
0.0
 10
2054.419584358044
 20
1331.674646076216
 30
0.0
 10
2041.740699121587
 20
1334.807299220902
 30
0.0
 10
2039.134122625452
 20
1335.309891707156
 30
0.0
 10
2033.849048191368
 20
1336.039527579532
 30
0.0
 10
2031.161841473392
 20
1336.26899169428
 30
0.0
 10
2022.960975567356
 20
1336.535453095204
 30
0.0
 10
2017.308863515125
 20
1336.152921981398
 30
0.0
 10
2008.520128917353
 20
1334.638072369953
 30
0.0
 10
2005.529343873643
 20
1333.973179082708
 30
0.0
 10
1999.4785816934
 20
1332.315511538941
 30
0.0
 10
1996.435550573791
 20
1331.328430525313
 30
0.0
 10
1987.252776679708
 20
1327.885896694219
 30
0.0
 10
1981.059556595531
 20
1324.950975173193
 30
0.0
 10
1962.251864237321
 20
1314.101712510138
 30
0.0
 10
1950.10770173574
 20
1304.576603773666
 30
0.0
 10
1935.368468242664
 20
1290.144793338262
 30
0.0
 10
1932.451998299615
 20
1287.137741367759
 30
0.0
 10
1926.755194663486
 20
1280.975461217768
 30
0.0
 10
1923.963207662215
 20
1277.809046130328
 30
0.0
 10
1915.745697933658
 20
1268.070290483377
 30
0.0
 10
1910.478181467425
 20
1261.259112209883
 30
0.0
 10
1902.864569018783
 20
1250.607522825508
 30
0.0
 10
1900.371476632061
 20
1246.97822595605
 30
0.0
 10
1895.538001617234
 20
1239.671853725981
 30
0.0
 10
1893.189595720562
 20
1235.984090826062
 30
0.0
 10
1886.334475009485
 20
1224.824610301228
 30
0.0
 10
1882.01717786001
 20
1217.257044593963
 30
0.0
 10
1873.831806126686
 20
1201.894600053811
 30
0.0
 10
1869.964189948181
 20
1194.09948926118
 30
0.0
 10
1864.474579643481
 20
1182.249040690004
 30
0.0
 10
1862.692829507826
 20
1178.262892031251
 30
0.0
 10
1859.254536068126
 20
1170.295091702827
 30
0.0
 10
1857.597937290839
 20
1166.314271102497
 30
0.0
 10
1849.609428968247
 20
1146.424667172588
 30
0.0
 10
1844.150780532296
 20
1130.558879076142
 30
0.0
 10
1837.154537430523
 20
1106.818872039499
 30
0.0
 10
1835.022700819547
 20
1098.915395445784
 30
0.0
 10
1831.145418795279
 20
1083.127466327381
 30
0.0
 10
1829.395832148362
 20
1075.217437114519
 30
0.0
 10
1824.76248956168
 20
1051.743659170945
 30
0.0
 10
1822.480487084752
 20
1036.433557739512
 30
0.0
 10
1819.428483058479
 20
1006.448749388236
 30
0.0
 10
1818.656163047332
 20
991.7729632337042
 30
0.0
 10
1818.656758294912
 20
963.071171454676
 30
0.0
 10
1819.429597615116
 20
949.3175038521424
 30
0.0
 10
1822.464074661068
 20
922.9611130239704
 30
0.0
 10
1824.728323450607
 20
910.3604083316501
 30
0.0
 10
1829.304740689458
 20
892.3716071526644
 30
0.0
 10
1831.028451827427
 20
886.528592370136
 30
0.0
 10
1834.899860383995
 20
875.1703335924173
 30
0.0
 10
1837.050343228886
 20
869.6534702059138
 30
0.0
 10
1844.073181588474
 20
853.8772074464472
 30
0.0
 10
1849.538406945678
 20
844.2974078993594
 30
0.0
 10
1859.073973449878
 20
831.5290706835965
 30
0.0
 10
1862.476810967285
 20
827.5414807090608
 30
0.0
 10
1867.958303146463
 20
822.0116756411143
 30
0.0
 10
1869.853542294826
 20
820.2398212316671
 30
0.0
 10
1873.74729363902
 20
816.8847188939428
 30
0.0
 10
1875.746272131307
 20
815.3001672205811
 30
0.0
 10
1886.01149409152
 20
807.8599260556074
 30
0.0
 10
1895.071079449131
 20
803.420290344422
 30
0.0
 10
1907.749794155034
 20
800.2879466584621
 30
0.0
 10
1910.35632497017
 20
799.785414142521
 30
0.0
 10
1915.641303293798
 20
799.0558859886862
 30
0.0
 10
1918.328460094373
 20
798.8264700906035
 30
0.0
 10
1926.529170447025
 20
798.560135761427
 30
0.0
 10
1932.181171209706
 20
798.9427285993389
 30
0.0
 10
1940.969726141373
 20
800.4576322181593
 30
0.0
 10
1943.960451769415
 20
801.122537951464
 30
0.0
 10
1950.011074835752
 20
802.7802112948434
 30
0.0
 10
1953.054035566221
 20
803.7672877470195
 30
0.0
 10
1962.23659579223
 20
807.2097854733149
 30
0.0
 10
1968.429670112632
 20
810.1446531723185
 30
0.0
 10
1987.236914355323
 20
820.9936573213905
 30
0.0
 10
1999.380796709034
 20
830.5184861593489
 30
0.0
 10
2014.119700288024
 20
844.9498303037946
 30
0.0
 10
2017.036115449584
 20
847.9567933686637
 30
0.0
 10
2022.732810283925
 20
854.1188859881024
 30
0.0
 10
2025.524745071338
 20
857.2852040044053
 30
0.0
 10
2033.742104393158
 20
867.0236590135474
 30
0.0
 10
2039.009528865615
 20
873.8346243499824
 30
0.0
 10
2046.623015005938
 20
884.4858766700736
 30
0.0
 10
2049.116074241437
 20
888.1150679599893
 30
0.0
 10
2053.949492808584
 20
895.421236397244
 30
0.0
 10
2056.297872515949
 20
899.1088963712521
 30
0.0
 10
2063.15292064545
 20
910.2680650891758
 30
0.0
 10
2067.470177204279
 20
917.8354189797361
 30
0.0
 10
2075.655483058643
 20
933.1974321432778
 30
0.0
 10
2079.523073828039
 20
940.9923234371273
 30
0.0
 10
2085.012657787211
 20
952.8424368052833
 30
0.0
 10
2086.794400814231
 20
956.8284713678981
 30
0.0
 10
2090.232701865355
 20
964.7960862630902
 30
0.0
 10
2091.889305950699
 20
968.7768142207722
 30
0.0
 10
2099.877848758801
 20
988.6659553286261
 30
0.0
 10
2105.336549629731
 20
1004.531374390755
 30
0.0
 10
2112.332913127209
 20
1028.270829931161
 30
0.0
 10
2114.464796889925
 20
1036.174123038422
 30
0.0
 10
2118.342189652796
 20
1051.961685993101
 30
0.0
 10
2120.091840761623
 20
1059.871530995445
 30
0.0
 10
2124.725422473756
 20
1083.344896531269
 30
0.0
 10
2127.007609154706
 20
1098.654733440571
 30
0.0
 10
2130.060048335055
 20
1128.639040796551
 30
0.0
 10
2130.832616961538
 20
1143.313800688986
 30
0.0
 10
2130.832616835749
 20
1157.665268504189
 30
0.0
  0
SPLINE
  5
14C
330
1F
100
AcDbEntity
  8
NECK
  6
Continuous
 62
     7
100
AcDbSpline
210
0.0
220
0.0
230
1.0
 70
    11
 71
     3
 72
    70
 73
    66
 74
     0
 42
0.0000000000595669
 43
0.0000000001
 40
0.0
 40
0.0
 40
0.0
 40
0.0
 40
0.03125
 40
0.03125
 40
0.0625
 40
0.0625
 40
0.09375
 40
0.09375
 40
0.125
 40
0.125
 40
0.15625
 40
0.15625
 40
0.1875
 40
0.1875
 40
0.21875
 40
0.21875
 40
0.25
 40
0.25
 40
0.28125
 40
0.28125
 40
0.3125
 40
0.3125
 40
0.34375
 40
0.34375
 40
0.375
 40
0.375
 40
0.4062500000000001
 40
0.4062500000000001
 40
0.4375000000000001
 40
0.4375000000000001
 40
0.4687500000000001
 40
0.4687500000000001
 40
0.5
 40
0.5
 40
0.53125
 40
0.53125
 40
0.5625
 40
0.5625
 40
0.59375
 40
0.59375
 40
0.625
 40
0.625
 40
0.65625
 40
0.65625
 40
0.6875
 40
0.6875
 40
0.71875
 40
0.71875
 40
0.75
 40
0.75
 40
0.7812500000000001
 40
0.7812500000000001
 40
0.8125000000000001
 40
0.8125000000000001
 40
0.8437500000000001
 40
0.8437500000000001
 40
0.8750000000000001
 40
0.8750000000000001
 40
0.9062500000000001
 40
0.9062500000000001
 40
0.9375000000000001
 40
0.9375000000000001
 40
0.9687500000000001
 40
0.9687500000000001
 40
1.0
 40
1.0
 40
1.0
 40
1.0
 10
1884.496305202653
 20
1091.490902074839
 30
0.0
 10
1882.942372358231
 20
1090.593738528809
 30
0.0
 10
1881.442869485358
 20
1089.905332536729
 30
0.0
 10
1878.533064613085
 20
1088.914928946366
 30
0.0
 10
1877.109678760477
 20
1088.615276180827
 30
0.0
 10
1874.460586716115
 20
1088.431546980049
 30
0.0
 10
1873.223202714045
 20
1088.539950194116
 30
0.0
 10
1870.911170128388
 20
1089.157027737681
 30
0.0
 10
1869.860797667988
 20
1089.66187957812
 30
0.0
 10
1867.985366504305
 20
1091.026618156537
 30
0.0
 10
1867.147007829595
 20
1091.8992943632
 30
0.0
 10
1865.716036887937
 20
1093.9602705719
 30
0.0
 10
1865.12299219763
 20
1095.140844841294
 30
0.0
 10
1864.166209631944
 20
1097.793539050882
 30
0.0
 10
1863.803147225815
 20
1099.27573307576
 30
0.0
 10
1863.326875167041
 20
1102.432409468957
 30
0.0
 10
1863.208704954098
 20
1104.116717995184
 30
0.0
 10
1863.210380230438
 20
1107.69737303729
 30
0.0
 10
1863.330187270319
 20
1109.547129457739
 30
0.0
 10
1863.806032960063
 20
1113.361982516248
 30
0.0
 10
1864.16478114522
 20
1115.339002536765
 30
0.0
 10
1865.128255581018
 20
1119.363939371904
 30
0.0
 10
1865.722670162078
 20
1121.373847501009
 30
0.0
 10
1867.142111368191
 20
1125.385574393014
 30
0.0
 10
1867.977168614635
 20
1127.407634266616
 30
0.0
 10
1869.863423397119
 20
1131.33813515155
 30
0.0
 10
1870.902856808011
 20
1133.227797456676
 30
0.0
 10
1873.186615338947
 20
1136.849031174575
 30
0.0
 10
1874.44839372978
 20
1138.59950349826
 30
0.0
 10
1877.095290206869
 20
1141.779923587701
 30
0.0
 10
1878.483337720635
 20
1143.221817437559
 30
0.0
 10
1881.403716540763
 20
1145.790882449317
 30
0.0
 10
1882.934013399236
 20
1146.911511720254
 30
0.0
 10
1886.04228992306
 20
1148.707717012976
 30
0.0
 10
1887.588529464618
 20
1149.370394324371
 30
0.0
 10
1890.655986163733
 20
1150.271722821449
 30
0.0
 10
1892.192742215537
 20
1150.506856356612
 30
0.0
 10
1895.10680944815
 20
1150.539305637786
 30
0.0
 10
1896.495941567258
 20
1150.344008953945
 30
0.0
 10
1899.131738710859
 20
1149.541254672045
 30
0.0
 10
1900.350970954393
 20
1148.939440581949
 30
0.0
 10
1902.553380354222
 20
1147.386708867594
 30
0.0
 10
1903.552210677715
 20
1146.421678389006
 30
0.0
 10
1905.271051347446
 20
1144.194815424511
 30
0.0
 10
1905.991060707855
 20
1142.940986299935
 30
0.0
 10
1907.157926977996
 20
1140.166915072309
 30
0.0
 10
1907.604013141288
 20
1138.636635478436
 30
0.0
 10
1908.190818722702
 20
1135.415666888529
 30
0.0
 10
1908.337834658173
 20
1133.714388803271
 30
0.0
 10
1908.335752927284
 20
1130.133185540766
 30
0.0
 10
1908.186724891473
 20
1128.299852846085
 30
0.0
 10
1907.600474359565
 20
1124.547737146938
 30
0.0
 10
1907.159651354361
 20
1122.617497991392
 30
0.0
 10
1905.984650072985
 20
1118.713574562689
 30
0.0
 10
1905.263081199556
 20
1116.776497476776
 30
0.0
 10
1903.558122973766
 20
1112.928392207147
 30
0.0
 10
1902.562997497797
 20
1110.998040979909
 30
0.0
 10
1900.3478638712
 20
1107.256391581523
 30
0.0
 10
1899.14159796607
 20
1105.462544282907
 30
0.0
 10
1896.537367209819
 20
1102.025343241793
 30
0.0
 10
1895.120348671152
 20
1100.364050261405
 30
0.0
 10
1892.208449336996
 20
1097.336189697436
 30
0.0
 10
1890.709194612058
 20
1095.95832486399
 30
0.0
 10
1887.628962279183
 20
1093.48133817989
 30
0.0
 10
1886.050238047076
 20
1092.388065620869
 30
0.0
 10
1884.496305202653
 20
1091.490902074839
 30
0.0
  0
SPLINE
  5
14D
330
1F
100
AcDbEntity
  8
NECK
  6
Continuous
 62
     7
100
AcDbSpline
210
0.0
220
0.0
230
1.0
 70
     8
 71
     3
 72
    32
 73
    28
 74
     0
 42
0.0000000000788855
 43
0.0000000001
 40
0.125447340316131
 40
0.125447340316131
 40
0.125447340316131
 40
0.125447340316131
 40
0.1875000000000001
 40
0.1875000000000001
 40
0.2500000000000001
 40
0.2500000000000001
 40
0.2812500000000001
 40
0.2812500000000001
 40
0.3125
 40
0.3125
 40
0.34375
 40
0.34375
 40
0.375
 40
0.375
 40
0.4375000000000001
 40
0.4375000000000001
 40
0.5000000000000001
 40
0.5000000000000001
 40
0.5312500000000002
 40
0.5312500000000002
 40
0.5625000000000002
 40
0.5625000000000002
 40
0.5937500000000003
 40
0.5937500000000003
 40
0.6250000000000003
 40
0.6250000000000003
 40
0.6254119201085185
 40
0.6254119201085185
 40
0.6254119201085185
 40
0.6254119201085185
 10
1865.780374365819
 20
1101.590845935877
 30
0.0
 10
1867.195170022803
 20
1100.783884960952
 30
0.0
 10
1868.94381012856
 20
1100.524905233518
 30
0.0
 10
1872.875211070829
 20
1101.111559479018
 30
0.0
 10
1875.096870541792
 20
1101.967546750364
 30
0.0
 10
1878.606510601042
 20
1103.994234461633
 30
0.0
 10
1879.781555265175
 20
1104.776229459915
 30
0.0
 10
1882.130146866446
 20
1106.550898485341
 30
0.0
 10
1883.316723060433
 20
1107.556210660435
 30
0.0
 10
1885.607473686472
 20
1109.727360517679
 30
0.0
 10
1886.709935709813
 20
1110.888235326433
 30
0.0
 10
1888.821595035276
 20
1113.364959779571
 30
0.0
 10
1889.833089124396
 20
1114.687740536225
 30
0.0
 10
1892.581988182015
 20
1118.734387089161
 30
0.0
 10
1894.104690132302
 20
1121.646589459622
 30
0.0
 10
1896.164693884295
 20
1127.402842435921
 30
0.0
 10
1896.726275019527
 20
1130.306088081488
 30
0.0
 10
1896.725654856554
 20
1134.35794143573
 30
0.0
 10
1896.588647275245
 20
1135.631662975779
 30
0.0
 10
1896.057542765079
 20
1138.029293896358
 30
0.0
 10
1895.656792084947
 20
1139.164256438052
 30
0.0
 10
1894.621597392893
 20
1141.206522008089
 30
0.0
 10
1893.991801184846
 20
1142.114282032885
 30
0.0
 10
1892.519073955154
 20
1143.700414180631
 30
0.0
 10
1891.670258568917
 20
1144.377970718562
 30
0.0
 10
1890.74216631049
 20
1144.91408016678
 30
0.0
 10
1890.730077018412
 20
1144.921030845699
 30
0.0
 10
1890.717972940157
 20
1144.927957424794
 30
0.0
  0
SPLINE
  5
14E
330
1F
100
AcDbEntity
  8
NECK
  6
Continuous
 62
     7
100
AcDbSpline
210
0.0
220
0.0
230
1.0
 70
     8
 71
     3
 72
    97
 73
    93
 74
     0
 42
0.0000000000167127
 43
0.0000000001
 40
0.0
 40
0.0
 40
0.0
 40
0.0
 40
0.0064354779034389
 40
0.013630875896291
 40
0.0188552422556175
 40
0.0225976082557118
 40
0.0263365791052352
 40
0.0415265861302304
 40
0.0505902557510233
 40
0.0602254876398671
 40
0.0713227658799983
 40
0.0918003318862921
 40
0.1116162555305718
 40
0.1306361876011185
 40
0.1462139235487696
 40
0.1611923445222691
 40
0.1754673038803077
 40
0.189537265601684
 40
0.1987980214270764
 40
0.2089782064787247
 40
0.2175015547108974
 40
0.2244931153035947
 40
0.2327084751805256
 40
0.2418237748554206
 40
0.2492394172312105
 40
0.2595601881845507
 40
0.2714638348625202
 40
0.28477863501881
 40
0.2996114630720751
 40
0.3160268427794475
 40
0.3343388853940877
 40
0.3548950334255846
 40
0.3776450682891739
 40
0.3997277327276929
 40
0.420259091215848
 40
0.438951468292717
 40
0.4555655027688221
 40
0.4699091063446193
 40
0.4826657551077173
 40
0.4951019303410878
 40
0.5072400862830719
 40
0.5191369890867273
 40
0.531522885782384
 40
0.5449960103605999
 40
0.5605860908708812
 40
0.5786525432063282
 40
0.5958193759112739
 40
0.6104776491451652
 40
0.6234635542343159
 40
0.636101907082626
 40
0.6430271385076549
 40
0.6506520805540346
 40
0.658955484576083
 40
0.6668307700595145
 40
0.6736907681693614
 40
0.6797337001750876
 40
0.6868741181246558
 40
0.6955900369208146
 40
0.7056447280447344
 40
0.7137258708915528
 40
0.7196199732450174
 40
0.7260550086570303
 40
0.7342583262592849
 40
0.7429190758254416
 40
0.7499733154365766
 40
0.7564380815373366
 40
0.7619716559914091
 40
0.7675144422437872
 40
0.7747751775044052
 40
0.7834466926538619
 40
0.7923145142705786
 40
0.7991585385132014
 40
0.805267507139959
 40
0.8112838557261688
 40
0.8198432692725917
 40
0.8305010961323144
 40
0.8409512064429495
 40
0.8505749129441128
 40
0.8591588945059829
 40
0.8669546978326997
 40
0.8789774814504709
 40
0.8920958150894773
 40
0.9071001843376512
 40
0.9230626484309803
 40
0.9387158443946473
 40
0.9498114703308294
 40
0.9605605025718049
 40
0.9701630870725423
 40
0.9756614598524834
 40
0.9830234669929047
 40
0.9924271513578712
 40
1.0
 40
1.0
 40
1.0
 40
1.0
 10
2016.076047123637
 20
1344.661862567357
 30
0.0
 10
2014.639807460851
 20
1344.572549466472
 30
0.0
 10
2012.073826056953
 20
1344.410474250399
 30
0.0
 10
2008.177784831069
 20
1344.07525938481
 30
0.0
 10
2004.930976587604
 20
1343.755368805939
 30
0.0
 10
2002.366010496297
 20
1343.475213005634
 30
0.0
 10
1997.800683269151
 20
1342.936627017398
 30
0.0
 10
1992.181034856365
 20
1342.146460103106
 30
0.0
 10
1985.420986796438
 20
1340.989098105139
 30
0.0
 10
1979.509357967037
 20
1339.83199825349
 30
0.0
 10
1971.392528345868
 20
1338.013055172155
 30
0.0
 10
1961.398595815888
 20
1335.317566860525
 30
0.0
 10
1950.115521151084
 20
1331.552583491403
 30
0.0
 10
1940.040411162171
 20
1327.501389216536
 30
0.0
 10
1931.131233470025
 20
1323.316237600504
 30
0.0
 10
1923.324633125576
 20
1319.138189341589
 30
0.0
 10
1916.016911850165
 20
1314.724637654628
 30
0.0
 10
1909.855155977978
 20
1310.565569695712
 30
0.0
 10
1904.467952580947
 20
1306.592410162877
 30
0.0
 10
1900.12771627863
 20
1303.155498219671
 30
0.0
 10
1896.243246971932
 20
1299.871514433697
 30
0.0
 10
1892.70549748215
 20
1296.716705453669
 30
0.0
 10
1889.146831335717
 20
1293.375408866426
 30
0.0
 10
1885.626284819524
 20
1289.874569472509
 30
0.0
 10
1881.911991307407
 20
1285.979992041673
 30
0.0
 10
1877.902343610188
 20
1281.533756833073
 30
0.0
 10
1873.268029824956
 20
1276.030976084207
 30
0.0
 10
1868.240814254445
 20
1269.593376522432
 30
0.0
 10
1862.929069811583
 20
1262.211707041811
 30
0.0
 10
1857.361616263336
 20
1253.771824476599
 30
0.0
 10
1851.551029672068
 20
1244.118320645376
 30
0.0
 10
1845.527368304265
 20
1233.10166474579
 30
0.0
 10
1839.617637934914
 20
1221.150598063567
 30
0.0
 10
1834.144703119517
 20
1208.980576000919
 30
0.0
 10
1829.387442270669
 20
1197.438704163538
 30
0.0
 10
1825.357535948354
 20
1186.857688265266
 30
0.0
 10
1822.010386815001
 20
1177.417781775803
 30
0.0
 10
1819.245368498395
 20
1169.108193756334
 30
0.0
 10
1816.882724211833
 20
1161.587623571311
 30
0.0
 10
1814.752946699025
 20
1154.420520568666
 30
0.0
 10
1812.770303922448
 20
1147.37121368739
 30
0.0
 10
1810.88194378924
 20
1140.273913713578
 30
0.0
 10
1809.028475330492
 20
1132.887789062446
 30
0.0
 10
1807.119977270782
 20
1124.76638906379
 30
0.0
 10
1805.111458344316
 20
1115.517451559819
 30
0.0
 10
1803.150019752466
 20
1105.539522364656
 30
0.0
 10
1801.436158014964
 20
1095.748197540433
 30
0.0
 10
1800.069565845856
 20
1086.954797183573
 30
0.0
 10
1798.977362138676
 20
1079.047018994475
 30
0.0
 10
1798.199361456834
 20
1072.660837058196
 30
0.0
 10
1797.616898192717
 20
1067.324910598802
 30
0.0
 10
1797.170106360459
 20
1062.841227902906
 30
0.0
 10
1796.754266204425
 20
1058.175444543385
 30
0.0
 10
1796.400959783049
 20
1053.663334453643
 30
0.0
 10
1796.123033386101
 20
1049.594711918438
 30
0.0
 10
1795.889519188476
 20
1045.666233079327
 30
0.0
 10
1795.673494521468
 20
1041.367458323053
 30
0.0
 10
1795.475124665314
 20
1036.284592467164
 30
0.0
 10
1795.34101104619
 20
1031.026548093305
 30
0.0
 10
1795.28378634589
 20
1026.330113485809
 30
0.0
 10
1795.276929704565
 20
1022.336255307023
 30
0.0
 10
1795.307670301694
 20
1018.312019111995
 30
0.0
 10
1795.392971050354
 20
1013.756408575094
 30
0.0
 10
1795.539883000445
 20
1009.087617579856
 30
0.0
 10
1795.727216473263
 20
1004.765384868339
 30
0.0
 10
1795.925690380116
 20
1001.059726091149
 30
0.0
 10
1796.139010907747
 20
997.6534705899743
 30
0.0
 10
1796.392047562889
 20
994.0902816721291
 30
0.0
 10
1796.72887175453
 20
989.9190203328354
 30
0.0
 10
1797.175003944848
 20
985.1161347331142
 30
0.0
 10
1797.675113744886
 20
980.40975431166
 30
0.0
 10
1798.173057815031
 20
976.2002729194048
 30
0.0
 10
1798.642388651544
 20
972.5413435653417
 30
0.0
 10
1799.19069326525
 20
968.5577361975713
 30
0.0
 10
1799.915141249857
 20
963.6945292321536
 30
0.0
 10
1800.849766737637
 20
957.9947344340037
 30
0.0
 10
1801.91257561307
 20
952.1069930973067
 30
0.0
 10
1802.989216977805
 20
946.6239406045225
 30
0.0
 10
1804.035432100573
 20
941.661455025947
 30
0.0
 10
1805.248305050368
 20
936.2450634317826
 30
0.0
 10
1806.752453786348
 20
929.9753674026701
 30
0.0
 10
1808.737122257378
 20
922.3536134994243
 30
0.0
 10
1811.104277874301
 20
914.0074000115536
 30
0.0
 10
1813.824929072143
 20
905.2197043699983
 30
0.0
 10
1816.522652496018
 20
897.204133032145
 30
0.0
 10
1819.042320555124
 20
890.1997254494055
 30
0.0
 10
1821.259885817567
 20
884.3471267422826
 30
0.0
 10
1823.160152911348
 20
879.5606256399436
 30
0.0
 10
1824.867315428067
 20
875.4021196724815
 30
0.0
 10
1826.594570466564
 20
871.3146213262276
 30
0.0
 10
1828.587771268865
 20
866.7431840669367
 30
0.0
 10
1829.909415734019
 20
863.8723354716404
 30
0.0
 10
1830.608536156119
 20
862.3569571867185
 30
0.0
  0
SPLINE
  5
14F
330
1F
100
AcDbEntity
  8
NECK
  6
Continuous
 62
     7
100
AcDbSpline
210
0.0
220
0.0
230
1.0
 70
     8
 71
     3
 72
    32
 73
    28
 74
     0
 42
0.0000000000238595
 43
0.0000000001
 40
0.0896347985029786
 40
0.0896347985029786
 40
0.0896347985029786
 40
0.0896347985029786
 40
0.0963109583037395
 40
0.1066375255848869
 40
0.1169480843425101
 40
0.1270254624742841
 40
0.137319201354027
 40
0.1479426944639383
 40
0.1587867851760967
 40
0.1700078224398369
 40
0.1817675021079759
 40
0.1940809710121041
 40
0.2070396916828535
 40
0.2207353483206273
 40
0.2353947042087645
 40
0.2508969421531273
 40
0.2672274521847331
 40
0.2844950079145599
 40
0.3028983194362911
 40
0.3222947602496339
 40
0.3426355189755357
 40
0.3642274495091663
 40
0.3869339305471448
 40
0.4104372165444584
 40
0.4347805307836047
 40
0.4599883345867175
 40
0.485180705275669
 40
0.485180705275669
 40
0.485180705275669
 40
0.485180705275669
 10
1876.473583789097
 20
1279.814709625105
 30
0.0
 10
1875.738304531131
 20
1279.525360432928
 30
0.0
 10
1873.866324453961
 20
1278.716796067407
 30
0.0
 10
1870.87857727032
 20
1277.14114936641
 30
0.0
 10
1867.555491034727
 20
1275.004621848025
 30
0.0
 10
1864.306703250427
 20
1272.521513840407
 30
0.0
 10
1861.117345975662
 20
1269.712503070186
 30
0.0
 10
1857.957839017176
 20
1266.55760404318
 30
0.0
 10
1854.838385866152
 20
1263.05829786542
 30
0.0
 10
1851.755968566249
 20
1259.22058575266
 30
0.0
 10
1848.702539036534
 20
1255.023466665565
 30
0.0
 10
1845.676058062522
 20
1250.453873262575
 30
0.0
 10
1842.680216038332
 20
1245.505468918018
 30
0.0
 10
1839.702383453176
 20
1240.143740917962
 30
0.0
 10
1836.751109191045
 20
1234.357307042442
 30
0.0
 10
1833.846653968564
 20
1228.148057614732
 30
0.0
 10
1831.010610801304
 20
1221.536247645541
 30
0.0
 10
1828.241772330027
 20
1214.499399552461
 30
0.0
 10
1825.551064111364
 20
1207.030162539053
 30
0.0
 10
1822.966530209674
 20
1199.143511031941
 30
0.0
 10
1820.498869260989
 20
1190.841228833757
 30
0.0
 10
1818.157667212709
 20
1182.121914918616
 30
0.0
 10
1815.975939353767
 20
1173.023252034384
 30
0.0
 10
1813.985030555441
 20
1163.618109907481
 30
0.0
 10
1812.204591772022
 20
1153.95614034621
 30
0.0
 10
1810.662037925746
 20
1144.159737364116
 30
0.0
 10
1809.800288176349
 20
1137.618099998317
 30
0.0
 10
1809.413260401072
 20
1134.365532074606
 30
0.0
  0
SPLINE
  5
150
330
1F
100
AcDbEntity
  8
NECK
  6
Continuous
 62
     7
100
AcDbSpline
210
0.0
220
0.0
230
1.0
 70
     8
 71
     3
 72
    45
 73
    41
 74
     0
 42
0.0000000000264365
 43
0.0000000001
 40
0.0
 40
0.0
 40
0.0
 40
0.0
 40
0.0033361318090757
 40
0.0370495376882874
 40
0.0708202128011076
 40
0.1045454625208681
 40
0.1381279920535632
 40
0.1714900815674284
 40
0.2047205679706723
 40
0.2378585947250769
 40
0.2707202530566699
 40
0.3033776349133718
 40
0.3356768105094139
 40
0.367561891262594
 40
0.3990009812588057
 40
0.4298488966611708
 40
0.4602429368578536
 40
0.490087607141279
 40
0.5193695782821426
 40
0.5481942846847647
 40
0.5765124094482136
 40
0.6040982563815945
 40
0.631105682331784
 40
0.6574878434983613
 40
0.683244427782012
 40
0.7085054754382144
 40
0.7332641627793599
 40
0.7574776724931896
 40
0.7811325104667493
 40
0.8042272244028364
 40
0.8268014520318469
 40
0.848940202178788
 40
0.8707449962905682
 40
0.8921764620344546
 40
0.9133148230365103
 40
0.9339740779142951
 40
0.9543365292311206
 40
0.9745584204941365
 40
0.994647090583569
 40
1.0
 40
1.0
 40
1.0
 40
1.0
 10
1821.857079146414
 20
973.1278469431494
 30
0.0
 10
1821.84459251369
 20
973.5240682490102
 30
0.0
 10
1821.726117910006
 20
977.3090812563038
 30
0.0
 10
1821.765911921579
 20
985.3950069363678
 30
0.0
 10
1822.025830418436
 20
996.5866501484679
 30
0.0
 10
1822.620542693495
 20
1008.075645855404
 30
0.0
 10
1823.512772711601
 20
1019.63405342535
 30
0.0
 10
1824.711351571025
 20
1031.289263057738
 30
0.0
 10
1826.209147060579
 20
1043.020089716489
 30
0.0
 10
1828.006298767101
 20
1054.810837740736
 30
0.0
 10
1830.100245101629
 20
1066.639518459991
 30
0.0
 10
1832.479490739257
 20
1078.459784177847
 30
0.0
 10
1835.140678955607
 20
1090.24197354752
 30
0.0
 10
1838.067779838189
 20
1101.941287234848
 30
0.0
 10
1841.245876574206
 20
1113.51406430972
 30
0.0
 10
1844.667528564265
 20
1124.940641764559
 30
0.0
 10
1848.317283904819
 20
1136.192828724299
 30
0.0
 10
1852.189931328329
 20
1147.258974700717
 30
0.0
 10
1856.275806133888
 20
1158.123098077144
 30
0.0
 10
1860.563713819962
 20
1168.775234141115
 30
0.0
 10
1865.036916705632
 20
1179.178565277881
 30
0.0
 10
1869.676132332733
 20
1189.302792704977
 30
0.0
 10
1874.459449266979
 20
1199.118705460426
 30
0.0
 10
1879.379159751093
 20
1208.624357806331
 30
0.0
 10
1884.427058025041
 20
1217.814399154171
 30
0.0
 10
1889.596789152805
 20
1226.688319418065
 30
0.0
 10
1894.878095714892
 20
1235.241228365779
 30
0.0
 10
1900.251227666154
 20
1243.45130003056
 30
0.0
 10
1905.695479170733
 20
1251.29828120156
 30
0.0
 10
1911.196007517117
 20
1258.771244438837
 30
0.0
 10
1916.743551072933
 20
1265.872679624297
 30
0.0
 10
1922.33949586777
 20
1272.613466642969
 30
0.0
 10
1927.978668408664
 20
1278.996454231398
 30
0.0
 10
1933.656471556342
 20
1285.020989389461
 30
0.0
 10
1939.341475884334
 20
1290.668956666198
 30
0.0
 10
1945.017662458842
 20
1295.92665156737
 30
0.0
 10
1950.700002838466
 20
1300.823935533745
 30
0.0
 10
1956.329146115632
 20
1305.297780049191
 30
0.0
 10
1960.754941547023
 20
1308.601152439184
 30
0.0
 10
1963.016611089252
 20
1310.109758643605
 30
0.0
 10
1963.57302952941
 20
1310.480185567678
 30
0.0
  0
SPLINE
  5
151
330
1F
100
AcDbEntity
  8
NECK
  6
Continuous
 62
     7
100
AcDbSpline
210
0.0
220
0.0
230
1.0
 70
     8
 71
     3
 72
   100
 73
    96
 74
     0
 42
0.0000000000125843
 43
0.0000000001
 40
0.0
 40
0.0
 40
0.0
 40
0.0
 40
0.0074037031652353
 40
0.019469617142858
 40
0.031341519283514
 40
0.0430201718924696
 40
0.054391419074233
 40
0.0655240883695241
 40
0.0763848737674928
 40
0.0869598673846848
 40
0.0973443748495168
 40
0.1074989413037981
 40
0.1174189015118299
 40
0.1271281355243233
 40
0.136651924714577
 40
0.1459867621648835
 40
0.1551373956247518
 40
0.1641353042105926
 40
0.1730029582571364
 40
0.1817622667890512
 40
0.1904301921349062
 40
0.1989790272604565
 40
0.2074030874433631
 40
0.2157489138236787
 40
0.2240423441960227
 40
0.2323094963579214
 40
0.2405770486967857
 40
0.2488131653045253
 40
0.2569812441037675
 40
0.2651998581978113
 40
0.2735030694973933
 40
0.2818512662641599
 40
0.2903047635108915
 40
0.2988129387295151
 40
0.3073959559772493
 40
0.316152024603075
 40
0.3250499824862889
 40
0.3341046693048011
 40
0.3433282763375115
 40
0.3527167014522709
 40
0.3622719328278309
 40
0.3720131662553381
 40
0.3819233733745383
 40
0.392045658650893
 40
0.4024258576201036
 40
0.413088654927226
 40
0.4238827393986876
 40
0.434910252866471
 40
0.4461446816587077
 40
0.4575587539131703
 40
0.4691886920195275
 40
0.4810728823630047
 40
0.4931351914820308
 40
0.5054081226200253
 40
0.5179088902301775
 40
0.5305167322393092
 40
0.5432994133317273
 40
0.5562056693455275
 40
0.5692061068425234
 40
0.5824216241662876
 40
0.5956969848631584
 40
0.6090553179222028
 40
0.6225364811661084
 40
0.6359789991092389
 40
0.649503842972646
 40
0.6630806361798807
 40
0.6766785654333224
 40
0.6902599381787099
 40
0.7037897507184385
 40
0.7172398480386746
 40
0.7306543445709195
 40
0.7440835983551418
 40
0.7574331534580298
 40
0.7707234050236607
 40
0.7838680014962842
 40
0.7968571969614907
 40
0.8096951997213816
 40
0.8223405817200459
 40
0.8348448771338627
 40
0.8471370371841506
 40
0.8591965656765973
 40
0.871062825082791
 40
0.8827440232560323
 40
0.8941216546346055
 40
0.9052653244329026
 40
0.9161321501832185
 40
0.9266974650695822
 40
0.9370873761288925
 40
0.9472330742076248
 40
0.9571369176032563
 40
0.9668403730705722
 40
0.9763821540812528
 40
0.9857369836302335
 40
0.9948816823305733
 40
1.0
 40
1.0
 40
1.0
 40
1.0
 10
1837.333731543383
 20
849.3127447704185
 30
0.0
 10
1838.214502062504
 20
847.7521105301373
 30
0.0
 10
1840.185967401598
 20
844.2797905024553
 30
0.0
 10
1843.997136560151
 20
838.4934179547653
 30
0.0
 10
1848.458031330854
 20
832.4084052196969
 30
0.0
 10
1853.167651152334
 20
826.7410973697707
 30
0.0
 10
1858.048590649574
 20
821.5560216443878
 30
0.0
 10
1863.089979473072
 20
816.8469454578712
 30
0.0
 10
1868.277836688204
 20
812.613255247939
 30
0.0
 10
1873.605116433758
 20
808.8503916557148
 30
0.0
 10
1879.058319003307
 20
805.5510116216853
 30
0.0
 10
1884.632426144175
 20
802.7099698197861
 30
0.0
 10
1890.304284078584
 20
800.3285289094049
 30
0.0
 10
1896.062458437197
 20
798.4000208072765
 30
0.0
 10
1901.89462817051
 20
796.9174400174348
 30
0.0
 10
1907.787461184791
 20
795.8731445212862
 30
0.0
 10
1913.72892421375
 20
795.2611878784563
 30
0.0
 10
1919.711832526508
 20
795.0742802821311
 30
0.0
 10
1925.73403621717
 20
795.3058299743064
 30
0.0
 10
1931.791424326848
 20
795.9501161164304
 30
0.0
 10
1937.86787798292
 20
796.999764627948
 30
0.0
 10
1943.943969502028
 20
798.4425632219736
 30
0.0
 10
1950.00722851761
 20
800.270921656806
 30
0.0
 10
1956.056069565802
 20
802.4788014228485
 30
0.0
 10
1962.097781842392
 20
805.064882840232
 30
0.0
 10
1968.13523275009
 20
808.027750594229
 30
0.0
 10
1974.157179663852
 20
811.3589886301061
 30
0.0
 10
1980.138885395914
 20
815.0401143971925
 30
0.0
 10
1986.076636743169
 20
819.0639261678567
 30
0.0
 10
1991.98334216172
 20
823.4332498561803
 30
0.0
 10
1997.871837036371
 20
828.157869040008
 30
0.0
 10
2003.73855605577
 20
833.2366018516918
 30
0.0
 10
2009.564581372895
 20
838.6472134905464
 30
0.0
 10
2015.340768742343
 20
844.3892462287238
 30
0.0
 10
2021.069194427872
 20
850.4611263148131
 30
0.0
 10
2026.755383436631
 20
856.8722357383516
 30
0.0
 10
2032.402117839759
 20
863.632016804395
 30
0.0
 10
2037.994232985477
 20
870.7281242415758
 30
0.0
 10
2043.522488848275
 20
878.1547857020273
 30
0.0
 10
2048.975688848271
 20
885.9020483104072
 30
0.0
 10
2054.346104341267
 20
893.9606619545256
 30
0.0
 10
2059.618777294305
 20
902.3219555069268
 30
0.0
 10
2064.789030789058
 20
910.9861173965221
 30
0.0
 10
2069.856958131682
 20
919.9611754247038
 30
0.0
 10
2074.831461461547
 20
929.2670079923572
 30
0.0
 10
2079.682239708155
 20
938.8693756993855
 30
0.0
 10
2084.394033019043
 20
948.7474962326736
 30
0.0
 10
2088.946570272464
 20
958.8648175354635
 30
0.0
 10
2093.335682467784
 20
969.2231553293419
 30
0.0
 10
2097.546686961454
 20
979.804105807814
 30
0.0
 10
2101.578004327726
 20
990.6087283719992
 30
0.0
 10
2105.415574299944
 20
1001.623632240292
 30
0.0
 10
2109.047628667538
 20
1012.833435534702
 30
0.0
 10
2112.464037222755
 20
1024.216340654295
 30
0.0
 10
2115.647636623395
 20
1035.737039661688
 30
0.0
 10
2118.58747082381
 20
1047.370538780413
 30
0.0
 10
2121.270218579959
 20
1059.071954377677
 30
0.0
 10
2123.686462754779
 20
1070.823979056939
 30
0.0
 10
2125.833307659135
 20
1082.624864861494
 30
0.0
 10
2127.700868999596
 20
1094.44294964345
 30
0.0
 10
2129.279324793878
 20
1106.259910261208
 30
0.0
 10
2130.562444885985
 20
1118.035714590707
 30
0.0
 10
2131.539286552574
 20
1129.728224518064
 30
0.0
 10
2132.206862528461
 20
1141.323016503807
 30
0.0
 10
2132.564563960399
 20
1152.789403402831
 30
0.0
 10
2132.610387821527
 20
1164.131987395942
 30
0.0
 10
2132.341799271707
 20
1175.31112071427
 30
0.0
 10
2131.758017127559
 20
1186.286713716109
 30
0.0
 10
2130.860636269953
 20
1197.021252437237
 30
0.0
 10
2129.649291234744
 20
1207.497422232445
 30
0.0
 10
2128.128884748511
 20
1217.725457483783
 30
0.0
 10
2126.296810903374
 20
1227.694379540327
 30
0.0
 10
2124.154269888145
 20
1237.385602276556
 30
0.0
 10
2121.713961356937
 20
1246.75389193042
 30
0.0
 10
2118.980425267777
 20
1255.770314230253
 30
0.0
 10
2115.968169228969
 20
1264.408325090171
 30
0.0
 10
2112.686308215391
 20
1272.653236561043
 30
0.0
 10
2109.138901859626
 20
1280.499706729716
 30
0.0
 10
2105.339333653646
 20
1287.932850356735
 30
0.0
 10
2101.294709836554
 20
1294.936411802846
 30
0.0
 10
2097.019968871125
 20
1301.494223392991
 30
0.0
 10
2092.525328590916
 20
1307.610326775329
 30
0.0
 10
2087.822729761903
 20
1313.268079867321
 30
0.0
 10
2082.935712464388
 20
1318.456694135714
 30
0.0
 10
2077.890805031486
 20
1323.166926836111
 30
0.0
 10
2072.700337493362
 20
1327.400736899673
 30
0.0
 10
2067.3723223854
 20
1331.161379599279
 30
0.0
 10
2061.921506093939
 20
1334.459277990856
 30
0.0
 10
2056.349563619462
 20
1337.297855429641
 30
0.0
 10
2050.680734285934
 20
1339.675430684416
 30
0.0
 10
2044.924401043
 20
1341.599685784029
 30
0.0
 10
2039.076477432587
 20
1343.08591290918
 30
0.0
 10
2033.213440425675
 20
1344.114273997165
 30
0.0
 10
2027.993472782099
 20
1344.689524893896
 30
0.0
 10
2025.034952042448
 20
1344.751543348262
 30
0.0
 10
2023.783272813334
 20
1344.774082190397
 30
0.0
  0
SPLINE
  5
152
330
1F
100
AcDbEntity
  8
NECK
  6
Continuous
 62
     7
100
AcDbSpline
210
0.0
220
0.0
230
1.0
 70
     8
 71
     3
 72
    35
 73
    31
 74
     0
 42
0.0000000001735655
 43
0.0000000001
 40
0.0119484683261795
 40
0.0119484683261795
 40
0.0119484683261795
 40
0.0119484683261795
 40
0.0209519301356186
 40
0.0643299849178622
 40
0.1004364957484595
 40
0.1335564638058062
 40
0.1630317535074289
 40
0.1943866414912292
 40
0.2264716700365524
 40
0.2605144272776228
 40
0.2961929043302621
 40
0.3329840119766435
 40
0.3702367672494133
 40
0.4071364219427676
 40
0.4436492794667973
 40
0.4804002876792923
 40
0.518011386528637
 40
0.5559626788811844
 40
0.593514128818601
 40
0.6300286489237062
 40
0.6649898419882663
 40
0.6985457982903521
 40
0.7345108271654431
 40
0.7710778020294039
 40
0.8077061088854367
 40
0.8437775601098649
 40
0.8791849691821014
 40
0.9146211292879607
 40
0.9550157995598494
 40
1.0
 40
1.0
 40
1.0
 40
1.0
 10
1865.800673444638
 20
1101.621948499249
 30
0.0
 10
1865.800761484096
 20
1101.622020297214
 30
0.0
 10
1865.796955652782
 20
1101.625999318609
 30
0.0
 10
1865.733549612928
 20
1101.668768388417
 30
0.0
 10
1865.471225113311
 20
1102.018404453402
 30
0.0
 10
1865.148325176965
 20
1102.670182818978
 30
0.0
 10
1864.825214132947
 20
1103.647792489757
 30
0.0
 10
1864.537649144959
 20
1105.024259767628
 30
0.0
 10
1864.343926758583
 20
1106.803665931757
 30
0.0
 10
1864.291904441278
 20
1108.951756270502
 30
0.0
 10
1864.424210033437
 20
1111.443413388556
 30
0.0
 10
1864.771936581291
 20
1114.209547418043
 30
0.0
 10
1865.350172969383
 20
1117.157263488585
 30
0.0
 10
1866.159308260775
 20
1120.197637919997
 30
0.0
 10
1867.198157365077
 20
1123.264958413096
 30
0.0
 10
1868.457225819193
 20
1126.332810953842
 30
0.0
 10
1869.931535926789
 20
1129.369078347421
 30
0.0
 10
1871.599547068327
 20
1132.303875143116
 30
0.0
 10
1873.410651749632
 20
1135.036733825877
 30
0.0
 10
1875.301752345303
 20
1137.477593524578
 30
0.0
 10
1877.203103627917
 20
1139.562108298513
 30
0.0
 10
1879.137344293702
 20
1141.32494587331
 30
0.0
 10
1881.110139502284
 20
1142.805173312277
 30
0.0
 10
1883.086916051541
 20
1143.985767320679
 30
0.0
 10
1884.94487547684
 20
1144.821494376188
 30
0.0
 10
1886.583761410702
 20
1145.316234259476
 30
0.0
 10
1887.921182748098
 20
1145.51180371418
 30
0.0
 10
1888.945467715952
 20
1145.486752146762
 30
0.0
 10
1889.899612681711
 20
1145.296357968265
 30
0.0
 10
1890.390812449481
 20
1145.043580402327
 30
0.0
 10
1890.691740125816
 20
1144.8799278157
 30
0.0
  0
INSERT
  5
154
330
1F
100
AcDbEntity
  8
Default
100
AcDbBlockReference
  2
GDimGGroup10
 10
0.0
 20
0.0
 30
0.0
  0
INSERT
  5
15E
330
1F
100
AcDbEntity
  8
Default
100
AcDbBlockReference
  2
GDimGGroup11
 10
0.0
 20
0.0
 30
0.0
  0
INSERT
  5
168
330
1F
100
AcDbEntity
  8
Default
100
AcDbBlockReference
  2
GDimGGroup12
 10
0.0
 20
0.0
 30
0.0
  0
INSERT
  5
172
330
1F
100
AcDbEntity
  8
Default
100
AcDbBlockReference
  2
GDimGGroup13
 10
0.0
 20
0.0
 30
0.0
  0
TEXT
  5
17B
330
1F
100
AcDbEntity
  8
1
  6
Continuous
 62
     7
100
AcDbText
 10
1514.3071496018
 20
111.0378243887
 30
0.0
 40
9.7671669079
  1
DENOMINAZIONE
  7
SEACAD_seiso_ttf
 11
1514.3071496018
 21
120.8049912966
 31
0.0
100
AcDbText
 73
     3
  0
TEXT
  5
17D
330
1F
100
AcDbEntity
  8
1
  6
Continuous
 62
     7
100
AcDbText
 10
1782.3288956567
 20
138.3529109289
 30
0.0
 40
22.4
  1
±5 %
  7
SEACAD_seiso_ttf
 11
1782.3288956567
 21
160.7529109289
 31
0.0
100
AcDbText
 73
     3
  0
TEXT
  5
17E
330
1F
100
AcDbEntity
  8
1
  6
Continuous
 62
     7
100
AcDbText
 10
2205.0490690237
 20
202.8255895997
 30
0.0
 40
25.6
  1
1 : 8
  7
SEACAD_seiso_ttf
 11
2205.0490690237
 21
228.4255895997
 31
0.0
100
AcDbText
 73
     3
  0
LINE
  5
17F
330
1F
100
AcDbEntity
  8
1
  6
Continuous
 62
     7
100
AcDbLine
 10
1494.2462144373
 20
129.1836513288
 30
0.0
 11
2274.8527005592
 21
129.1836513288
 31
0.0
  0
LINE
  5
180
330
1F
100
AcDbEntity
  8
1
  6
Continuous
 62
     7
100
AcDbLine
 10
710.3427320008
 20
58.4755619034
 30
0.0
 11
2274.8527005592
 21
58.4755619034
 31
0.0
  0
INSERT
  5
182
330
1F
100
AcDbEntity
  8
Default
100
AcDbBlockReference
  2
SEANNOT_GROUP3
 10
0.0
 20
0.0
 30
0.0
  0
TEXT
  5
188
330
1F
100
AcDbEntity
  8
Predefinito
  6
Continuous
 62
     7
100
AcDbText
 10
1304.1391382158
 20
206.6542003732
 30
0.0
 40
12.8
  1
SCARABEO CERAMICHE SRL
  7
SEACAD_seiso_ttfBI
 11
1304.1391382158
 21
219.4542003732
 31
0.0
100
AcDbText
 73
     3
  0
TEXT
  5
18A
330
1F
100
AcDbEntity
  8
Predefinito
  6
Continuous
 62
     7
100
AcDbText
 10
1338.9027745794
 20
185.7087458277
 30
0.0
 40
12.8
  1
ROMA - ITALY
  7
SEACAD_seiso_ttfBI
 11
1338.9027745794
 21
198.5087458277
 31
0.0
100
AcDbText
 73
     3
  0
TEXT
  5
18B
330
1F
100
AcDbEntity
  8
Predefinito
  6
Continuous
 62
     7
100
AcDbText
 10
1281.7188050958
 20
263.1091153163
 30
0.0
 40
11.2
  1
I.D.R.
  7
SEACAD_seiso_ttf
 11
1281.7188050958
 21
274.3091153163
 31
0.0
100
AcDbText
 73
     3
  0
TEXT
  5
18C
330
1F
100
AcDbEntity
  8
Predefinito
  6
Continuous
 62
     7
100
AcDbText
 10
1288.2907602875
 20
289.4505901793
 30
0.0
 40
16.0
  1
1
  7
SEACAD_seiso_ttf
 11
1288.2907602875
 21
305.4505901793
 31
0.0
100
AcDbText
 73
     3
  0
LINE
  5
18D
330
1F
100
AcDbEntity
  8
1
  6
Continuous
 62
     7
100
AcDbLine
 10
2032.7016558042
 20
257.1836513288
 30
0.0
 11
2032.7016558042
 21
378.7836513288
 31
0.0
  0
TEXT
  5
18E
330
1F
100
AcDbEntity
  8
Predefinito
  6
Continuous
 62
     7
100
AcDbText
 10
1558.8327152255
 20
259.6992742532
 30
0.0
 40
14.0
  1
DESCRIZIONE
  7
SEACAD_seiso_ttf
 11
1558.8327152255
 21
273.6992742532
 31
0.0
100
AcDbText
 73
     3
  0
TEXT
  5
18F
330
1F
100
AcDbEntity
  8
Predefinito
  6
Continuous
 62
     7
100
AcDbText
 10
2080.6610891648
 20
261.6617431862
 30
0.0
 40
11.2
  1
DATA
  7
SEACAD_seiso_ttf
 11
2080.6610891648
 21
272.8617431862
 31
0.0
100
AcDbText
 73
     3
  0
TEXT
  5
190
330
1F
100
AcDbEntity
  8
Predefinito
  6
Continuous
 62
     7
100
AcDbText
 10
2198.7592237026
 20
263.09888744
 30
0.0
 40
11.2
  1
FIRMA
  7
SEACAD_seiso_ttf
 11
2198.7592237026
 21
274.29888744
 31
0.0
100
AcDbText
 73
     3
  0
INSERT
  5
192
330
1F
100
AcDbEntity
  8
Default
100
AcDbBlockReference
  2
SEANNOT_GROUP4
 10
0.0
 20
0.0
 30
0.0
  0
LINE
  5
197
330
1F
100
AcDbEntity
  8
1
  6
Continuous
 62
     7
100
AcDbLine
 10
2183.0958279606
 20
257.1836513288
 30
0.0
 11
2183.0958279606
 21
193.1836513288
 31
0.0
  0
CIRCLE
  5
198
330
1F
100
AcDbEntity
  8
1
  6
Continuous
 62
     7
100
AcDbCircle
 10
2144.406079028
 20
225.1057846513
 30
0.0
 40
18.23294462732581
  0
CIRCLE
  5
199
330
1F
100
AcDbEntity
  8
1
  6
Continuous
 62
     7
100
AcDbCircle
 10
2144.406079028
 20
225.1057846513
 30
0.0
 40
9.116472313662907
  0
INSERT
  5
19B
330
1F
100
AcDbEntity
  8
Predefinito
100
AcDbBlockReference
  2
SEANNOT_GROUP5
 10
0.0
 20
0.0
 30
0.0
  0
LINE
  5
1A0
330
1F
100
AcDbEntity
  8
1
  6
Continuous
 62
     7
100
AcDbLine
 10
2100.28245117
 20
243.3387292787
 30
0.0
 11
2100.28245117
 21
206.872840024
 31
0.0
  0
LINE
  5
1A1
330
1F
100
AcDbEntity
  8
1
  6
Continuous
 62
     7
100
AcDbLine
 10
2056.7891608529
 20
234.222256965
 30
0.0
 11
2056.7891608529
 21
215.9893123377
 31
0.0
  0
LINE
  5
1A2
330
1F
100
AcDbEntity
  8
1
  6
Continuous
 62
     7
100
AcDbLine
 10
2056.7891608529
 20
234.222256965
 30
0.0
 11
2100.28245117
 21
243.3387292787
 31
0.0
  0
LINE
  5
1A3
330
1F
100
AcDbEntity
  8
1
  6
Continuous
 62
     7
100
AcDbLine
 10
2056.7891608529
 20
215.9893123377
 30
0.0
 11
2100.28245117
 21
206.872840024
 31
0.0
  0
INSERT
  5
1A5
330
1F
100
AcDbEntity
  8
Predefinito
100
AcDbBlockReference
  2
SEANNOT_GROUP6
 10
0.0
 20
0.0
 30
0.0
  0
LINE
  5
1A9
330
1F
100
AcDbEntity
  8
1
  6
Continuous
 62
     7
100
AcDbLine
 10
1265.0347448603
 20
282.7938792051
 30
0.0
 11
2274.8527005592
 21
282.7938792051
 31
0.0
  0
LINE
  5
1AA
330
1F
100
AcDbEntity
  8
1
  6
Continuous
 62
     7
100
AcDbLine
 10
1265.0347448603
 20
314.7938792051
 30
0.0
 11
2274.8527005592
 21
314.7938792051
 31
0.0
  0
LINE
  5
1AB
330
1F
100
AcDbEntity
  8
1
  6
Continuous
 62
     7
100
AcDbLine
 10
1265.0347448603
 20
346.7938792051
 30
0.0
 11
2274.8527005592
 21
346.7938792051
 31
0.0
  0
LINE
  5
1AC
330
1F
100
AcDbEntity
  8
1
  6
Continuous
 62
     7
100
AcDbLine
 10
1265.0347448603
 20
378.7938792051
 30
0.0
 11
2274.8527005592
 21
378.7938792051
 31
0.0
  0
TEXT
  5
1AD
330
1F
100
AcDbEntity
  8
Predefinito
  6
Continuous
 62
     7
100
AcDbText
 10
1287.3816693784
 20
353.4505901793
 30
0.0
 40
16.0
  1
3
  7
SEACAD_seiso_ttf
 11
1287.3816693784
 21
369.4505901793
 31
0.0
100
AcDbText
 73
     3
  0
TEXT
  5
1AE
330
1F
100
AcDbEntity
  8
Predefinito
  6
Continuous
 62
     7
100
AcDbText
 10
1286.6543966511
 20
321.4505901793
 30
0.0
 40
16.0
  1
2
  7
SEACAD_seiso_ttf
 11
1286.6543966511
 21
337.4505901793
 31
0.0
100
AcDbText
 73
     3
  0
LINE
  5
1AF
330
1F
100
AcDbEntity
  8
1
  6
Continuous
 62
     7
100
AcDbLine
 10
2183.0958279606
 20
129.1836513288
 30
0.0
 11
2183.0958279606
 21
193.1836513288
 31
0.0
  0
LINE
  5
1B0
330
1F
100
AcDbEntity
  8
1
  6
Continuous
 62
     7
100
AcDbLine
 10
2183.0958279606
 20
129.1836513288
 30
0.0
 11
2183.0958279606
 21
59.7716518368
 31
0.0
  0
LINE
  5
1B1
330
1F
100
AcDbEntity
  8
1
  6
Continuous
 62
     7
100
AcDbLine
 10
1494.2462144373
 20
193.1836513288
 30
0.0
 11
2274.8527005592
 21
193.1836513288
 31
0.0
  0
LINE
  5
1B2
330
1F
100
AcDbEntity
  8
1
  6
Continuous
 62
     7
100
AcDbLine
 10
1265.0347448603
 20
257.1836513288
 30
0.0
 11
2274.8527005592
 21
257.1836513288
 31
0.0
  0
TEXT
  5
1B3
330
1F
100
AcDbEntity
  8
1
  6
Continuous
 62
     7
100
AcDbText
 10
2188.6339626062
 20
240.8124116653
 30
0.0
 40
9.792
  1
SCALA
  7
SEACAD_seiso_ttf
 11
2188.6339626062
 21
250.6044116653
 31
0.0
100
AcDbText
 73
     3
  0
TEXT
  5
1B4
330
1F
100
AcDbEntity
  8
1
  6
Continuous
 62
     7
100
AcDbText
 10
2188.6339626062
 20
112.8124116653
 30
0.0
 40
9.792
  1
FOGLIO
  7
SEACAD_seiso_ttf
 11
2188.6339626062
 21
122.6044116653
 31
0.0
100
AcDbText
 73
     3
  0
TEXT
  5
1B5
330
1F
100
AcDbEntity
  8
1
  6
Continuous
 62
     7
100
AcDbText
 10
1625.4525939107
 20
175.1639004174
 30
0.0
 40
9.792
  1
DISEGNATO
  7
SEACAD_seiso_ttf
 11
1625.4525939107
 21
184.9559004174
 31
0.0
100
AcDbText
 73
     3
  0
TEXT
  5
1B6
330
1F
100
AcDbEntity
  8
1
  6
Continuous
 62
     7
100
AcDbText
 10
1509.9235459944
 20
172.298385482
 30
0.0
 40
9.792
  1
DATA
  7
SEACAD_seiso_ttf
 11
1509.9235459944
 21
182.090385482
 31
0.0
100
AcDbText
 73
     3
  0
TEXT
  5
1B7
330
1F
100
AcDbEntity
  8
1
  6
Continuous
 62
     7
100
AcDbText
 10
1737.1319663657
 20
166.2832100579
 30
0.0
 40
9.792
  1
TOLL. GENER.
  7
SEACAD_seiso_ttf
 11
1737.1319663657
 21
176.0752100579
 31
0.0
100
AcDbText
 73
     3
  0
TEXT
  5
1B8
330
1F
100
AcDbEntity
  8
1
  6
Continuous
 62
     7
100
AcDbText
 10
1503.784089916
 20
239.1203033714
 30
0.0
 40
9.792
  1
MATERIALE
  7
SEACAD_seiso_ttf
 11
1503.784089916
 21
248.9123033714
 31
0.0
100
AcDbText
 73
     3
  0
TEXT
  5
1B9
330
1F
100
AcDbEntity
  8
Predefinito
  6
Continuous
 62
     7
100
AcDbText
 10
1287.2847575326
 20
145.0412057573
 30
0.0
 40
10.24
  1
Documento riservato a termini di legge
  7
SEACAD_seiso_ttf
 11
1287.2847575326
 21
155.2812057573
 31
0.0
100
AcDbText
 73
     3
  0
TEXT
  5
1BA
330
1F
100
AcDbEntity
  8
Predefinito
  6
Continuous
 62
     7
100
AcDbText
 10
1283.4447575326
 20
128.2848421209
 30
0.0
 40
10.24
  1
con divieto di riproduzione o di renderlo
  7
SEACAD_seiso_ttf
 11
1283.4447575326
 21
138.5248421209
 31
0.0
100
AcDbText
 73
     3
  0
TEXT
  5
1BB
330
1F
100
AcDbEntity
  8
Predefinito
  6
Continuous
 62
     7
100
AcDbText
 10
1312.0702120781
 20
111.5284784846
 30
0.0
 40
10.24
  1
comunque noto a terzi senza 
  7
SEACAD_seiso_ttf
 11
1312.0702120781
 21
121.7684784846
 31
0.0
100
AcDbText
 73
     3
  0
TEXT
  5
1BC
330
1F
100
AcDbEntity
  8
Predefinito
  6
Continuous
 62
     7
100
AcDbText
 10
1328.2447575326
 20
94.7721148482
 30
0.0
 40
10.24
  1
autorizzazione scritta
  7
SEACAD_seiso_ttf
 11
1328.2447575326
 21
105.0121148482
 31
0.0
100
AcDbText
 73
     3
  0
INSERT
  5
1BE
330
1F
100
AcDbEntity
  8
Predefinito
100
AcDbBlockReference
  2
SEANNOT_GROUP7
 10
0.0
 20
0.0
 30
0.0
  0
INSERT
  5
1C3
330
1F
100
AcDbEntity
  8
Predefinito
100
AcDbBlockReference
  2
SEANNOT_GROUP8
 10
0.0
 20
0.0
 30
0.0
  0
TEXT
  5
1C6
330
1F
100
AcDbEntity
  8
1
  6
Continuous
 62
     7
100
AcDbText
 10
2187.2490642928
 20
175.3171056733
 30
0.0
 40
9.792
  1
REV.
  7
SEACAD_seiso_ttf
 11
2187.2490642928
 21
185.1091056733
 31
0.0
100
AcDbText
 73
     3
  0
LINE
  5
1C7
330
1F
100
AcDbEntity
  8
1
  6
Continuous
 62
     7
100
AcDbLine
 10
2032.7016558042
 20
257.1836513288
 30
0.0
 11
2032.7016558042
 21
193.1836513288
 31
0.0
  0
INSERT
  5
1C9
330
1F
100
AcDbEntity
  8
Predefinito
100
AcDbBlockReference
  2
SEANNOT_GROUP9
 10
0.0
 20
0.0
 30
0.0
  0
TEXT
  5
1CD
330
1F
100
AcDbEntity
  8
1
  6
Continuous
 62
     7
100
AcDbText
 10
1876.9950404566
 20
240.8124116653
 30
0.0
 40
9.792
  1
NOTE
  7
SEACAD_seiso_ttf
 11
1876.9950404566
 21
250.6044116653
 31
0.0
100
AcDbText
 73
     3
  0
INSERT
  5
1CF
330
1F
100
AcDbEntity
  8
Predefinito
100
AcDbBlockReference
  2
SEANNOT_GROUP10
 10
0.0
 20
0.0
 30
0.0
  0
TEXT
  5
1D2
330
1F
100
AcDbEntity
  8
1
  6
Continuous
 62
     7
100
AcDbText
 10
1876.2014387746
 20
175.8456536957
 30
0.0
 40
9.792
  1
CODICE
  7
SEACAD_seiso_ttf
 11
1876.2014387746
 21
185.6376536957
 31
0.0
100
AcDbText
 73
     3
  0
INSERT
  5
1D4
330
1F
100
AcDbEntity
  8
Predefinito
100
AcDbBlockReference
  2
SEANNOT_GROUP11
 10
0.0
 20
0.0
 30
0.0
  0
LINE
  5
1D8
330
1F
100
AcDbEntity
  8
1
  6
Continuous
 62
     7
100
AcDbLine
 10
2154.3016558042
 20
257.1836513288
 30
0.0
 11
2154.3016558042
 21
378.7836513288
 31
0.0
  0
INSERT
  5
1DA
330
1F
100
AcDbEntity
  8
Predefinito
100
AcDbBlockReference
  2
SEANNOT_GROUP12
 10
0.0
 20
0.0
 30
0.0
  0
LINE
  5
1DE
330
1F
100
AcDbEntity
  8
1
  6
Continuous
 62
     7
100
AcDbLine
 10
2274.8527005593
 20
58.2501321268
 30
0.0
 11
86.8513052672
 21
58.2501321268
 31
0.0
  0
LINE
  5
1DF
330
1F
100
AcDbEntity
  8
1
  6
Continuous
 62
     7
100
AcDbLine
 10
86.8513052672
 20
1622.7601006853
 30
0.0
 11
2274.8527005592
 21
1622.7601006853
 31
0.0
  0
LINE
  5
1E0
330
1F
100
AcDbEntity
  8
1
  6
Continuous
 62
     7
100
AcDbLine
 10
86.8513052672
 20
1622.7601006853
 30
0.0
 11
86.8513052672
 21
58.2501321268
 31
0.0
  0
LINE
  5
1E1
330
1F
100
AcDbEntity
  8
1
  6
Continuous
 62
     7
100
AcDbLine
 10
2274.8527005593
 20
1622.7601006853
 30
0.0
 11
2274.8527005593
 21
58.2501321268
 31
0.0
  0
LINE
  5
1E2
330
1F
100
AcDbEntity
  8
Predefinito
  6
Continuous
 62
     7
100
AcDbLine
 10
1859.4824493559
 20
257.1836513288
 30
0.0
 11
1859.4824493559
 21
129.1836513288
 31
0.0
  0
LINE
  5
1E3
330
1F
100
AcDbEntity
  8
Predefinito
  6
Continuous
 62
     7
100
AcDbLine
 10
1727.6687623254
 20
193.1836513288
 30
0.0
 11
1727.6687623254
 21
129.1836513288
 31
0.0
  0
LINE
  5
1E4
330
1F
100
AcDbEntity
  8
Predefinito
  6
Continuous
 62
     7
100
AcDbLine
 10
1613.7140107017
 20
193.1836513288
 30
0.0
 11
1613.7140107017
 21
129.1836513288
 31
0.0
  0
LINE
  5
1E5
330
1F
100
AcDbEntity
  8
Predefinito
  6
Continuous
 62
     7
100
AcDbLine
 10
1494.2462144373
 20
257.1836513288
 30
0.0
 11
1494.2462144373
 21
59.5913080155
 31
0.0
  0
LINE
  5
1E6
330
1F
100
AcDbEntity
  8
Predefinito
  6
Continuous
 62
     7
100
AcDbLine
 10
1613.7140107017
 20
59.7716518368
 30
0.0
 11
1613.7140107017
 21
59.5913080155
 31
0.0
  0
LINE
  5
1E7
330
1F
100
AcDbEntity
  8
Predefinito
  6
Continuous
 62
     7
100
AcDbLine
 10
1265.0347448603
 20
378.7938792051
 30
0.0
 11
1265.0347448603
 21
59.5913080155
 31
0.0
  0
LINE
  5
1E8
330
1F
100
AcDbEntity
  8
Predefinito
  6
Continuous
 62
     7
100
AcDbLine
 10
1327.5469638359
 20
378.7938792051
 30
0.0
 11
1327.5469638359
 21
257.1836513288
 31
0.0
  0
LINE
  5
1E9
330
1F
100
AcDbEntity
  8
Predefinito
  6
Continuous
 62
     7
100
AcDbLine
 10
710.3427320008
 20
58.4755619034
 30
0.0
 11
710.3427320008
 21
58.2501321268
 31
0.0
  0
IMAGE
  5
1ED
330
1F
100
AcDbEntity
  8
0
 92
      140
310
8C00000001000000840000000600000005000000804CACAE35E99340CE92997C883A6C400000000000000000ACA19777F8299740CE92997C883A6C400000000000000000ACA19777F82997400C5450B9CFB26F400000000000000000804CACAE35E993400C5450B9CFB26F400000000000000000804CACAE35E99340CE9299
310
7C883A6C400000000000000000
100
AcDbRasterImage
 90
        0
 10
1274.3024241373
 20
225.8291609764
 30
0.0
 11
0.6939673985706122
 21
0.0
 31
0.0
 12
0.0
 22
0.6939673985706107
 32
0.0
 13
300.0
 23
40.0
340
1EC
 70
     3
280
     0
281
    50
282
    50
283
     0
360
1EE
 71
     1
 91
        2
 14
-0.5
 24
-0.5
 14
299.5
 24
39.5
  0
ENDSEC
  0
SECTION
  2
OBJECTS
  0
DICTIONARY
  5
C
330
0
100
AcDbDictionary
281
     1
  3
ACAD_GROUP
350
D
  3
ACAD_IMAGE_DICT
350
1EB
  3
ACAD_IMAGE_VARS
350
1EA
  3
ACAD_LAYOUT
350
1A
  3
ACAD_MLINESTYLE
350
17
  3
ACAD_PLOTSETTINGS
350
19
  3
ACAD_PLOTSTYLENAME
350
E
  0
IMAGEDEF_REACTOR
  5
1EE
330
1ED
100
AcDbRasterImageDefReactor
 90
        2
330
1ED
  0
DICTIONARY
  5
D
102
{ACAD_REACTORS
330
C
102
}
330
C
100
AcDbDictionary
281
     1
  0
DICTIONARY
  5
1EB
102
{ACAD_REACTORS
330
C
102
}
330
C
100
AcDbDictionary
281
     1
  3
Neck_marchioScarabeoCART.jpg
350
1EC
  0
RASTERVARIABLES
  5
1EA
102
{ACAD_REACTORS
330
C
102
}
330
C
100
AcDbRasterVariables
 90
        0
 70
     1
 71
     1
 72
     1
  0
DICTIONARY
  5
1A
102
{ACAD_REACTORS
330
C
102
}
330
C
100
AcDbDictionary
281
     1
  3
Layout1
350
1E
  3
Model
350
22
  0
DICTIONARY
  5
17
102
{ACAD_REACTORS
330
C
102
}
330
C
100
AcDbDictionary
281
     1
  3
Standard
350
18
  0
DICTIONARY
  5
19
102
{ACAD_REACTORS
330
C
102
}
330
C
100
AcDbDictionary
281
     1
  0
ACDBDICTIONARYWDFLT
  5
E
102
{ACAD_REACTORS
330
C
102
}
330
C
100
AcDbDictionary
281
     1
  3
Normal
350
F
100
AcDbDictionaryWithDefault
340
F
  0
IMAGEDEF
  5
1EC
102
{ACAD_REACTORS
330
1EB
330
1EE
102
}
330
1EB
100
AcDbRasterImageDef
 90
        0
  1
Neck_marchioScarabeoCART.jpg
 10
300.0
 20
40.0
 11
0.003333333333333334
 21
0.003333333333333334
280
     1
281
     5
  0
LAYOUT
  5
1E
102
{ACAD_REACTORS
330
1A
102
}
330
1A
100
AcDbPlotSettings
  1

  2
none_device
  4

  6

 40
0.0
 41
0.0
 42
0.0
 43
0.0
 44
0.0
 45
0.0
 46
0.0
 47
0.0
 48
0.0
 49
0.0
140
0.0
141
0.0
142
1.0
143
1.0
 70
   688
 72
     0
 73
     0
 74
     5
  7

 75
    16
147
1.0
148
0.0
149
0.0
100
AcDbLayout
  1
Layout1
 70
     1
 71
     1
 10
0.0
 20
0.0
 11
2376.0
 21
1680.0
 12
0.0
 22
0.0
 32
0.0
 14
0.0
 24
0.0
 34
0.0
 15
2376.0
 25
1680.0
 35
0.0
146
0.0
 13
0.0
 23
0.0
 33
0.0
 16
1.0
 26
0.0
 36
0.0
 17
0.0
 27
1.0
 37
0.0
 76
     0
330
1B
  0
LAYOUT
  5
22
102
{ACAD_REACTORS
330
1A
102
}
330
1A
100
AcDbPlotSettings
  1

  2
none_device
  4

  6

 40
0.0
 41
0.0
 42
0.0
 43
0.0
 44
0.0
 45
0.0
 46
0.0
 47
0.0
 48
0.0
 49
0.0
140
0.0
141
0.0
142
1.0
143
1.0
 70
  1712
 72
     0
 73
     0
 74
     0
  7

 75
     0
147
1.0
148
0.0
149
0.0
100
AcDbLayout
  1
Model
 70
     1
 71
     0
 10
0.0
 20
0.0
 11
2376.0
 21
1680.0
 12
0.0
 22
0.0
 32
0.0
 14
0.0
 24
0.0
 34
0.0
 15
2376.0
 25
1680.0
 35
0.0
146
0.0
 13
0.0
 23
0.0
 33
0.0
 16
1.0
 26
0.0
 36
0.0
 17
0.0
 27
1.0
 37
0.0
 76
     0
330
1F
  0
MLINESTYLE
  5
18
102
{ACAD_REACTORS
330
17
102
}
330
17
100
AcDbMlineStyle
  2
Standard
 70
     0
  3

 62
   256
 51
90.0
 52
90.0
 71
     2
 49
0.5
 62
   256
  6
BYLAYER
 49
-0.5
 62
   256
  6
BYLAYER
  0
ACDBPLACEHOLDER
  5
F
102
{ACAD_REACTORS
330
E
102
}
330
E
  0
ENDSEC
  0
EOF
